Oops, an error
Loading. Please wait.

Tarde Tab

82 views 12 this week
no commentswrite comment
1 2 3 4 5
3 more votes to show rating
add to favorites
launch autoscroll
font size
0
reset
how to read this tab
guitar tuner
Autoscroll
slow
fast
+/-
esc
set tempo
stop
Help us to improve Ultimate-Guitar.com Take our survey!
×
Author
Difficulty
Capo
intermediate
2nd fret
About this tab version
Based in a cover and a live video of the band. Was this info helpful? Yes No
[Intro part 1]
Guitarra 1:
Pm.......................................................................
e|------------------|-------------------|-------------------|------------------|
B|------------------|-------------------|-------------------|------------------|
G|------------------|-------------------|-------------------|------------------|
D|------------------|-------------------|-------------------|------------------|
A|----7---7---7---7-|---9---9---9---9---|-11---11---11---11-|---7---7---7---7--|
E|--0---0---0---0---|-0---0---0---0---0-|----0----0----0----|-0---0---0---0----|

Pm...................................................................
e|------------------|-----------------|-----------------|------------------|
B|------------------|-----------------|-----------------|------------------|
G|------------------|-----------------|-----------------|------------------|
D|----2---2---2---2-|---4---4---4---4-|---6---6---6---6-|---2---2---2---2--|
A|--0---0---0---0---|-0---0---0---0---|-0---0---0---0---|-0---0---0---0----|
E|------------------|-----------------|-----------------|------------------|

[Intro part 2]
Guitarra 1 (rasgueo):
   F#  B
e|----|-----|
B|----|-----|
G|----|-4---|
D|--4-|-4---|
A|--4-|-2---|
E|--2-|-----|

Guitarra 2 (no relativo a capo):
e|---------------------|----------------------|-------------------------|----------------------|
B|----12----14---12-11-|----12----14----12-11-|----12----14----12----14-|----12----14----12-11-|
G|-11----11---11-------|-11----11----11-------|-11----11----11----11----|-11----11----11-------|
D|---------------------|----------------------|-------------------------|----------------------|
A|---------------------|----------------------|-------------------------|----------------------|
E|---------------------|----------------------|-------------------------|----------------------|

e|----------14---13----|----------14----13----|----------14----------14-|----------14----13-----|
B|----12------------14-|----12-------------14-|----12----------14-------|----14-------------14~-|
G|-11----11---11-------|-11----11----11-------|-11----11----11----11----|-11----11----11--------|
D|---------------------|----------------------|-------------------------|-----------------------|
A|---------------------|----------------------|-------------------------|-----------------------|
E|---------------------|----------------------|-------------------------|-----------------------|
 (x2)

Guitarra 3:
Pm.......................................................................
e|------------------|-------------------|-------------------|------------------|
B|------------------|-------------------|-------------------|------------------|
G|------------------|-------------------|-------------------|------------------|
D|------------------|-------------------|-------------------|------------------|
A|----7---7---7---7-|---9---9---9---9---|-11---11---11---11-|---7---7---7---7--|
E|--0---0---0---0---|-0---0---0---0---0-|----0----0----0----|-0---0---0---0----|

Pm...................................................................
e|------------------|-----------------|----------------------------------|
B|------------------|-----------------|----------------------------------|
G|------------------|-----------------|----------------------------------|
D|----2---2---2---2-|---4---4---4---4-|---6---6---6---6---2---2---2---2--|
A|--0---0---0---0---|-0---0---0---0---|-0---0---0---0---0---0---0---0----|
E|------------------|-----------------|----------------------------------|
(x2)


[Verse]
Guitarra 2:
Pm.......................................................................
e|------------------|-------------------|-------------------|------------------|
B|------------------|-------------------|-------------------|------------------|
G|------------------|-------------------|-------------------|------------------|
D|------------------|-------------------|-------------------|------------------|
A|----7---7---7---7-|---9---9---9---9---|-11---11---11---11-|---7---7---7---7--|
E|--0---0---0---0---|-0---0---0---0---0-|----0----0----0----|-0---0---0---0----|

Pm...................................................................
e|------------------|-----------------|----------------------------------|
B|------------------|-----------------|----------------------------------|
G|------------------|-----------------|----------------------------------|
D|----2---2---2---2-|---4---4---4---4-|---6---6---6---6---2---2---2---2--|
A|--0---0---0---0---|-0---0---0---0---|-0---0---0---0---0---0---0---0----|
E|------------------|-----------------|----------------------------------|

Guitarra 3 (Segunda vuelta):
e|--------------------|----2---------2-----|-----2-------|-----------------------|
B|--------------------|--4---4-----4---4---|---4---4-----|-----------------------|
G|----15--------18----|--------4-4-------4-|-4-------4-4-|-----15--------18------|
D|-16----16--16----16-|--------------------|-------------|--16----16--16----16~--|
A|--------------------|--------------------|-------------|-----------------------|
E|--------------------|--------------------|-------------|-----------------------|

[Chorus part 1]
Guitarra 1 (rasgueo):
   F#  B
e|----|-----|
B|----|-----|
G|----|-4---|
D|--4-|-4---|
A|--4-|-2---|
E|--2-|-----|

Guitarra 2:
e|---------------------|-----------------------------|
B|---------------------|-----------------------------|
G|-10-10-10-10---x-x---|-----------------------------|
D|--9--9--9--9---x-x---|-(x4)--9-9-9-9---x-x----(x4)-|
A|--7--7--7--7---x-x---|-------9-9-9-9---x-x---------|
E|---------------------|-------7-7-7-7---x-x---------|

[Chorus part 2]
Guitarra 1 (rasgueo):
   F#  B
e|----|-----|
B|----|-----|
G|----|-4---|
D|--4-|-4---|
A|--4-|-2---|
E|--2-|-----|

Guitarra 2 (no relativo a capo):
e|---------------------|----------------------|-------------------------|----------------------|
B|----12----14---12-11-|----12----14----12-11-|----12----14----12----14-|----12----14----12-11-|
G|-11----11---11-------|-11----11----11-------|-11----11----11----11----|-11----11----11-------|
D|---------------------|----------------------|-------------------------|----------------------|
A|---------------------|----------------------|-------------------------|----------------------|
E|---------------------|----------------------|-------------------------|----------------------|

e|----------14---13----|----------14----13----|----------14----------14-|----------14----13-----|
B|----12------------14-|----12-------------14-|----12----------14-------|----14-------------14~-|
G|-11----11---11-------|-11----11----11-------|-11----11----11----11----|-11----11----11--------|
D|---------------------|----------------------|-------------------------|-----------------------|
A|---------------------|----------------------|-------------------------|-----------------------|
E|---------------------|----------------------|-------------------------|-----------------------|
 (x2)

Guitarra 3:
Pm.......................................................................
e|------------------|-------------------|-------------------|------------------|
B|------------------|-------------------|-------------------|------------------|
G|------------------|-------------------|-------------------|------------------|
D|------------------|-------------------|-------------------|------------------|
A|----7---7---7---7-|---9---9---9---9---|-11---11---11---11-|---7---7---7---7--|
E|--0---0---0---0---|-0---0---0---0---0-|----0----0----0----|-0---0---0---0----|

Pm...................................................................
e|------------------|-----------------|-----------------|------------------|
B|------------------|-----------------|-----------------|------------------|
G|------------------|-----------------|-----------------|------------------|
D|----2---2---2---2-|---4---4---4---4-|---6---6---6---6-|---2---2---2---2--|
A|--0---0---0---0---|-0---0---0---0---|-0---0---0---0---|-0---0---0---0----|
E|------------------|-----------------|-----------------|------------------|
(x2)

[Verse 2]
Guitarra 2:
Pm...................................................................
e|------------------|-----------------|-----------------|------------------|
B|------------------|-----------------|-----------------|------------------|
G|------------------|-----------------|-----------------|------------------| x2
D|----2---2---2---2-|---4---4---4---4-|---6---6---6---6-|---2---2---2---2--|
A|--0---0---0---0---|-0---0---0---0---|-0---0---0---0---|-0---0---0---0----|
E|------------------|-----------------|-----------------|------------------|

Guitarra 3 (segunda vuelta):
e|--------------------|----2---------2-----|-----2-------|-----------------------|
B|--------------------|--4---4-----4---4---|---4---4-----|-----------------------|
G|----15--------18----|--------4-4-------4-|-4-------4-4-|-----15--------18------|
D|-16----16--16----16-|--------------------|-------------|--16----16--16----16~--|
A|--------------------|--------------------|-------------|-----------------------|
E|--------------------|--------------------|-------------|-----------------------|

Guitarra 4:
Pm..................
e|----------|---------|
B|----------|---------|
G|----------|-13--13--| muchas veces
D|-16-16-16-|---------|
A|----------|---------|
E|----------|---------|

[Chorus part 1]
Guitarra 1 (rasgueo):
   F#  B
e|----|-----|
B|----|-----|
G|----|-4---|
D|--4-|-4---|
A|--4-|-2---|
E|--2-|-----|

Guitarra 2:
e|---------------------|-----------------------------|
B|---------------------|-----------------------------|
G|-10-10-10-10---x-x---|-----------------------------|
D|--9--9--9--9---x-x---|-(x4)--9-9-9-9---x-x----(x4)-|
A|--7--7--7--7---x-x---|-------9-9-9-9---x-x---------|
E|---------------------|-------7-7-7-7---x-x---------|

[Chorus part 2]
Guitarra 1 (rasgueo):
   F#  B
e|----|-----|
B|----|-----|
G|----|-4---|
D|--4-|-4---|
A|--4-|-2---|
E|--2-|-----|

Guitarra 2 (no relativo a capo):
e|---------------------|----------------------|-------------------------|----------------------|
B|----12----14---12-11-|----12----14----12-11-|----12----14----12----14-|----12----14----12-11-|
G|-11----11---11-------|-11----11----11-------|-11----11----11----11----|-11----11----11-------|
D|---------------------|----------------------|-------------------------|----------------------|
A|---------------------|----------------------|-------------------------|----------------------|
E|---------------------|----------------------|-------------------------|----------------------|

e|----------14---13----|----------14----13----|----------14----------14-|----------14----13-----|
B|----12------------14-|----12-------------14-|----12----------14-------|----14-------------14~-|
G|-11----11---11-------|-11----11----11-------|-11----11----11----11----|-11----11----11--------|
D|---------------------|----------------------|-------------------------|-----------------------|
A|---------------------|----------------------|-------------------------|-----------------------|
E|---------------------|----------------------|-------------------------|-----------------------|
 (x2)

Guitarra 3:
Pm.......................................................................
e|------------------|-------------------|-------------------|------------------|
B|------------------|-------------------|-------------------|------------------|
G|------------------|-------------------|-------------------|------------------|
D|------------------|-------------------|-------------------|------------------|
A|----7---7---7---7-|---9---9---9---9---|-11---11---11---11-|---7---7---7---7--|
E|--0---0---0---0---|-0---0---0---0---0-|----0----0----0----|-0---0---0---0----|

Pm...................................................................
e|------------------|-----------------|----------------------------------|
B|------------------|-----------------|----------------------------------|
G|------------------|-----------------|----------------------------------|
D|----2---2---2---2-|---4---4---4---4-|---6---6---6---6---2---2---2---2--|
A|--0---0---0---0---|-0---0---0---0---|-0---0---0---0---0---0---0---0----|
E|------------------|-----------------|----------------------------------|
(x2)

[Bridge]
Guitarra 1 (rasgueo):
   F#  B
e|---------|
B|---------|
G|-----4---|
D|--4--4---|
A|--4--2---|
E|--2------|

Guitarra 2:
e|---------------------|-----------------------------|
B|---------------------|-----------------------------|
G|-10-10-10-10---x-x---|-----------------------------|
D|--9--9--9--9---x-x---|-(x4)--9-9-9-9---x-x----(x4)-|
A|--7--7--7--7---x-x---|-------9-9-9-9---x-x---------|
E|---------------------|-------7-7-7-7---x-x---------|

Guitarra 3:
Pm.......................................................................
e|------------------|-------------------|-------------------|------------------|
B|------------------|-------------------|-------------------|------------------|
G|------------------|-------------------|-------------------|------------------|
D|------------------|-------------------|-------------------|------------------|
A|----7---7---7---7-|---9---9---9---9---|-11---11---11---11-|---7---7---7---7--|
E|--0---0---0---0---|-0---0---0---0---0-|----0----0----0----|-0---0---0---0----|

Pm...................................................................
e|------------------|-----------------|----------------------------------|
B|------------------|-----------------|----------------------------------|
G|------------------|-----------------|----------------------------------|
D|----2---2---2---2-|---4---4---4---4-|---6---6---6---6---2---2---2---2--|
A|--0---0---0---0---|-0---0---0---0---|-0---0---0---0---0---0---0---0----|
E|------------------|-----------------|----------------------------------|

Guitarra 4:
Pm..................
e|----------|---------|
B|----------|---------|
G|----------|-13--13--| muchas veces
D|-16-16-16-|---------|
A|----------|---------|
E|----------|---------|

[Outro]
Guitarra 1 (rasgueo):
   F#  B
e|----|-----|
B|----|-----|
G|----|-4---|
D|--4-|-4---|
A|--4-|-2---|
E|--2-|-----|

Guitarra 2 (no relativo a capo):
e|---------------------|----------------------|-------------------------|----------------------|
B|----12----14---12-11-|----12----14----12-11-|----12----14----12----14-|----12----14----12-11-|
G|-11----11---11-------|-11----11----11-------|-11----11----11----11----|-11----11----11-------|
D|---------------------|----------------------|-------------------------|----------------------|
A|---------------------|----------------------|-------------------------|----------------------|
E|---------------------|----------------------|-------------------------|----------------------|

e|----------14---13----|----------14----13----|----------14----------14-|----------14----13-----|
B|----12------------14-|----12-------------14-|----12----------14-------|----14-------------14~-|
G|-11----11---11-------|-11----11----11-------|-11----11----11----11----|-11----11----11--------|
D|---------------------|----------------------|-------------------------|-----------------------|
A|---------------------|----------------------|-------------------------|-----------------------|
E|---------------------|----------------------|-------------------------|-----------------------|
 (x2)

Guitarra 3:
Pm.......................................................................
e|------------------|-------------------|-------------------|------------------|
B|------------------|-------------------|-------------------|------------------|
G|------------------|-------------------|-------------------|------------------|
D|------------------|-------------------|-------------------|------------------|
A|----7---7---7---7-|---9---9---9---9---|-11---11---11---11-|---7---7---7---7--|
E|--0---0---0---0---|-0---0---0---0---0-|----0----0----0----|-0---0---0---0----|

Pm...................................................................
e|------------------|-----------------|----------------------------------|
B|------------------|-----------------|----------------------------------|
G|------------------|-----------------|----------------------------------|
D|----2---2---2---2-|---4---4---4---4-|---6---6---6---6---2---2---2---2--|
A|--0---0---0---0---|-0---0---0---0---|-0---0---0---0---0---0---0---0----|
E|------------------|-----------------|----------------------------------|
(x2)

Guitarra 4:
Pm..................
e|----------|---------|
B|----------|---------|
G|----------|-13--13--| muchas veces
D|-16-16-16-|---------|
A|----------|---------|
E|----------|---------|
.
***********************************

| h   Hammer-on
| /   Slide-up
| ~   Vibrato

*********************************** 
Suggest correction
Give kudos to tab author, rate the tab!
1 2 3 4 5
comments
print report bad tab
guest
You may want to rate the tab now too:
select rating
Wanna post a correction for this tab? Suggest correction