Oops, an error
Loading. Please wait.

Volver A Ver Tab

136 views 1 this week
no commentswrite comment
1 2 3 4 5
3 more votes to show rating
add to favorites
×
Save as Personal and add changes to this tab that will be seen only by you. Learn more ›
×
You can save this tab as Personal to edit and correct it or add notes. All changes will be seen only by you. Learn more »
save as personal
new!
launch autoscroll
font size
0
reset
how to read this tab
guitar tuner
Autoscroll
slow
fast
+/-
esc
set tempo
stop
KE ONDA BANDA, PUES AKI ESTA ESA ROLA KE LA NETA ESTA MUY BUENA
ESTE BROTHER SE LA RIFA, YO SE KE MUY POKOS SE VAN A METER A VERLA
PERO LOS KE SE METAN PUES DENLE PUNTAJE PORFAS AI LES ENCARGO Y SI
LA PUEDEN MEJORAR PUES TAMBIEN!


E                     F#7                    riff 1
Para avanzar, busqué, retroceder mi instinto
E                       F#7
Y al despertar  no pude evitar verme distinto
Am            E        (silencio)
Pues madrugada revolcó...toooodoo

E                     F#7
Al aterrizar tuve que recordar olvidos
E                 F#7
Y al encontrarnos decidí quedar vacío
Am                      E        F#7
Pues el nuevo paisaje me vendrí...a bien
Am????(SIlencio)         E
No necesito repetirme

F#7          A                    B7      E
Viajeeeeeeeé para perder el miedo a dejarme?
F#7
Caer
A            B7
Para volver, para volver a ver

-AKI SE TOKAN ESTOS ACORDES ANTES DE PASAR AL REKINTO,
AI KE JUGAR UN POCO CON LAS CUERDAS PARA HACER KE SE PAREZCA
A LA CANCION (E  G#m   E    G#m    E     G#m   E)

LUEGO SIGUE EL REKINTO, SE PUEDE TOKAR DE VARIAS MANERAS YO ESCRIBI
 LA KE SE ME HIZO MÁS SIMPLE ACOMPAÑADO DE ESTOS ACORDES:
E-F#7-E-F#7-C-E
SOLO:
E--------------------------------------------------------------------
B-5-5-5-4-4-4-2-2-2-4-4-5-0---5-4-5-0---5-4-5-2-2-2-4-4-4-5-5-5-7-7-7
G--------------------------------------------------------------------
D--------------------------------------------------------------------
A--------------------------------------------------------------------
G--------------------------------------------------------------------

E--------------------------------------------------------------------
B-2-2-2-4-4-4-5-5-5-7-7-7-0---5-4-5-0---5-4-5-2-2-2-4-4-4-5-5-5-7-7-7
G--------------------------------------------------------------------
D--------------------------------------------------------------------
A--------------------------------------------------------------------
G--------------------------------------------------------------------

E-5-5-5-9-9-9-12----------12----------------9--9-7-------------------
B-----------------14-12-10---14-12-14-9------9-----------------------
G--------------------------------------------------------------------
D--------------------------------------------------------------------
A--------------------------------------------------------------------
G--------------------------------------------------------------------

E             F#7     B7
 Hay un lugar             para escapar del tiempo [x3]


E            F#7     B7
Hay un lugar
E                  F#7    A             E
Para volver a ver,        para volver, para volver a ver

Y SE REPITEN ESOS 4 ACORDES (E-F#7-A-E) HASTA TERMINAR
No necesito?repetirme

Para volver, para volver a ver

Viaje para volver, para volver a ver


LA ULTIMA PARTE ESTA ALGO CONFUZA PERO ES CUESTION DE
ESCUCHAR BIEN LA CANCION Y DE VOLADA SALE, OH AKI ESTA EL RIFF1?
TAMBN TENGO EL INTRO Y EL PEKEÑO REKINTO DEL FINAL PERO ESTA DE
WEBA ESCRIBIRLOS ASI KE SI LOS KIEREN PUES AKI ESTA MI CORREO
edgar_aguayo@

Es en la cuerda numero 4:
D--2-5/6-2-5/6
Suggest correction
Give kudos to tab author, rate the tab!
1 2 3 4 5
comments
print report bad tab
guest
Wanna post a correction for this tab? Suggest correction