Oops, an error
Loading. Please wait.

Noche En Velero Chords

version 2
version 2

Whole song

19 views 1 this week
no commentswrite comment
1 2 3 4 5
3 more votes to show rating
add to favorites
×
Save as Personal and add changes to this tab that will be seen only by you. Learn more ›
×
You can save this tab as Personal to edit and correct it or add notes. All changes will be seen only by you. Learn more »
save as personal
new!
launch autoscroll
font size
0
reset
transpose
0
reset
display chords
guitar tuner
Autoscroll
slow
fast
+/-
esc
set tempo
stop
Strumming
There is no strumming pattern for this song yet. and get +5 IQ
Ya hay una transcripción de noche en velero de los sidecars
 xo le falta la intro!
aki tengo la miaaa!! espero q os guste!!

 1 ------------------------------------------------
 2 ----1--0--1-------------------------------------
 3 -------------2--4d->-0--------------------------
 4 -----------------------0---3---2---0------------
 5 --3---------------------------------------3-----
 6 ------------------------------------------------


  D        G*
 10 de febrero

 A*                         G*
 No puedo olvidarlo ni quiero

 D            G*           A*               G*
 Noche en velero si te quedas conmigo me quedo

 G                    D
 Tú no quisiste parar hoy te vas a marear
 F#m             G        Em*
 qué mejor canción,chica rock and roll

 G            Em*      D           F#m         G
 Vámonos de Madrid para mí no hace falta ir a París
 G           Em*    D        G        D
 vamos a decidir las Vegas, Brujas o Berlín.


Era un recreo, la parte de atras del costello
cuanto veneno olvídalo y pide un deseo
mañana tienes que volar y aquí no me quieres dejar
que mejor cancion, chica rock and roll

estribillo x 2

Intro


G* 1----x-----   A* 1----x----  Em* 1---x---
   2----3-----      2----5----       2---3---
   3----4-----      3----6----       3---2---
   4----5-----      4----7----       4---0---
   5----x-----      5----x----       5---2---
   6----x-----      6----x----       6---x---
Suggest correction
Give kudos to tab author, rate the tab!
1 2 3 4 5
comments
print report bad tab
guest
Wanna post a correction for this tab? Suggest correction