Oops, an error
Loading. Please wait.

One Last Time Tab

211 views 1 this week
no commentswrite comment
1 2 3 4 5
please rate
add to favorites
launch autoscroll
font size
0
reset
how to read this tab
guitar tuner
Autoscroll
slow
fast
+/-
esc
set tempo
stop
Help us to improve Ultimate-Guitar.com Take our survey!
×
TITLE:       one last time
ARTIST:      side crash
ALBUM:       rounin soundtrack
TABBED BY:   silentrocker21
E-MAIL:      lorenz10_15@yahoo.com

nize song by this band Side Crash... don't know much 'bout them but i liked this song... 
nize original soundtracks from rounin... just strum the chords while d other 1 do the 
part, i also did a guitar tab for the intro part...
hope you pipz like this tab... dedicated to my dear bunny... lavyah...\m/\m/
add me in friendster/myspace: lorenz10_15@yahoo.com
thankz...
(juzt msg me if u want me to tab a new rock or alternative song that you like...\m/\m/)


GUITAR TUNING : STANDARD


intro:
     A               G     Bm              A G
e|-------5-----5---------------5-----5-----0-2---|
B|-------------------------2-3---2-3---2-3-------|
G|---6-7---6-7---6-7-6-4-------------------------|
D|-----------------------------------------------|
A|-------------------------2---------------0-----|
E|---5---------------3-----------------------3---|


verse1:
A - G
Bm - A - G


pre-chorus:
Em - G
Em - A


chorus1:
     D      A      G      Bm   A
e|---------------------------------|
B|---------------------------------|
G|------------------------4--------|
D|-----------------5-----------7---|
A|------------------------2--------|
E|-----------------3-----------5---|

     D      A      G      Bm   A
e|---------------------------------|
B|---------------------------------|
G|---7------6-------------4--------|
D|-----------------5-----------7---|
A|---5------4-------------2--------|
E|-----------------3-----------5---|

     Bm      A   G
e|-------------------|
B|-------------------|
G|---4---------------|
D|-----------7---5---|
A|---2---------------|
E|-----------5---3---|

     Bm      D        DM7        D
e|--------------------------------------|
B|--------------------------------------|
G|----4------7-7-7-7--6-6-6-6--6-7------|
D|----------------------------------7---|
A|----2------5-5-5-5--4-4-4-4--4-5------|
E|----------------------------------5---|


verse2:
A - G
Bm - A - G


pre-chorus:
Em - G
Em - A


chorus2:
     D      A      G      Bm   A
e|---------------------------------|
B|---------------------------------|
G|---7------6-------------4--------|
D|-----------------5-----------7---|
A|---5------4-------------2--------|
E|-----------------3-----------5---|


adlib:
     Bm     A      G
e|----------------------|
B|----------------------|
G|---7------9------11---|
D|----------------------|
A|---5------7------9----|
E|----------------------|

    Bm              A                G                              D
e|------5-----5---------5-----5-----------------------------------------|
B|--------------------------------------------------17^19---17^19---15--|
G|--7-7---7-7---7-7-6-6---6-6---6-6/-19-19-14~---14---------------------|
D|----------------------------------------------------------------------|
A|----------------------------------------------------------------------|
E|----------------------------------------------------------------------|


bridge:
D - A - G
Bm - A - G


repeat chorus2...

Key:

T   - Tap (Strings)
PM  - Palm Muting
/   - Slide Up
\   - Slide Down
h   - Hammer-on
p   - Pull-off
~   - Let the note ringing
s   - Strum softly
c   - Continue and Continuation
^   - Bend
*   - Harmonics


<---------------lyrics--------------->
verse:
i know that nothing lasts forever
some things are never meant to be
land's life don't ever falter
coz in this moment you will see

pre-chorus:
that i can't let go, no i can't let go
coz i feel you more and more

chorus:
i can't give you up, i just want you to know
my tears keep falling
if only i have the time to live this life of mine
for just one last time
for just one last time...

verse:
i have to look for someone for you
someone to love you more than i could do
someone who'll never make you cry
God said i'm about to say goodbye

pre-chorus:
though i can't let go, no i can't let go
coz i feel you more and more

chorus:
i can't give you up, i just want you to know
my tears keep falling
if only i have the time to live this life of mine
for just one last time

bridge:
i can't give you up, i just want you to know
(my tears keep falling)
i can't give you up, i just want you to know
(i just want you to know)

repeat chorus 2x...
Suggest correction
Give kudos to tab author, rate the tab!
1 2 3 4 5
comments
print report bad tab
guest
You may want to rate the tab now too:
select rating
Wanna post a correction for this tab? Suggest correction