Oops, an error
Loading. Please wait.

Nuestro Baile Del Viernes Tab

28 views 3 this week
no commentswrite comment
1 2 3 4 5
3 more votes to show rating
add to favorites
launch autoscroll
font size
0
reset
how to read this tab
guitar tuner
×
Best way to learn
"Nuestro Baile Del Viernes"
Autoscroll
slow
fast
+/-
esc
set tempo
stop
Nuestro Baile del Viernes
Sidonie
Costa Azul(2007)

Esta es mi primera tab subida, espero que este bien,
ya he visto que hay otra tab con los acordes,
pero he mandado esta, que esta mas completa,
lo he puesto con la otra notación,
que hay gente que prefiere esta notación a la otra,
y asi estamos a gusto de todos ¿¿¿no???

Se que no tienen algunos punteos que se oyen de fondo,
pero no son lo más importante de la canción,
creo q aun asi esta completo,
si mas adeltante consigo sacar las partes esas las pondre.

Intro:

E---------------------------------|---------------------------------|
B---------------------------------|---------------------------------|
G---------7-5-------------0-------|---------7-5-------------0-------|
D----5h7-------5h7-0-0h2----------|----5h7-------5h7-0-0h2----------|
A---------------------------------|---------------------------------|
E---------------------------------|---------------------------------|

E---------------------------------|
B---------------------------------|
G-------7-5------5-4------7-5-----|
D---5h7------5h7------5h7-----5h6/|
A---------------------------------|
E---------------------------------|


Am                                  D
Son las 6 he dormido mal es un día gris
F             E            Am               E
tú no estas y no hay café, es hermoso existir
7 y 10 alguien escribió en el ascensor
el placer se puede comprar pagando con dolor

Am             F               C
Yo soy uno más de esos rostros tan comunes
Am             F          C               E
en el autobús son las 8 y hoy es lunes

Tú estas maquillándote antes de salir
sombra, rimel, lápiz y carmín
ya no está la cicatriz

Eres una más hoy tus labios son bordéles
tú y yo en la ciudad son las 12 y hoy es viernes

A                 F#m                 D
Bailemos canciones de viernes que ni conocemos
A
pero bailemos hoy llegaremos hasta el cielo
F#m                       D
bailando canciones que ni conocemos
A             E                          D
pero bailemos por un momento somos tan bellos
E           D                Am(intro)
y después tan mediocres otra vez

Quiero dar una vuelta más solo son las 3
ahora soy como un niño que se rie al caer
por favor una vuelta más en el carrusel
solo soy como un niño que se rie al caer

 Am           F  C        E
E---------------------------------|
B--------5-----------5------------|
G-2^^----5---2^^^----5---2^^------|
D---------------------------------|
A---------------------------------|
E---------------------------------|

Creo que lo de ariba no me ha quedado del todo claro,
lo explico aquí por escrito y aver si asi se entiende mejor.
- Durante esta parte, los acordes son los Am, F, C y al final E,
tal como la parte en la que canta
?Yo soy uno mas de esos rostros tan comunes?.
Aunque la parte esa instrumental es mas larga de lo que he puesto aquí,
pero con poner un poquillo de oido, se ve claro  cuando toca cada cosa,
o eso creo,
si no, avisadme y lo modifico para dejarlo mas claro. -


Bailemos canciones de viernes que ni conocemos
pero bailemos hoy llegaremos hasta el cielo
bailando canciones que ni conocemos
pero bailemos hoy llegaremos hasta el cielo
hasta el cielo, hasta el cielo, hasta el cielo

Gente tan normal que despierta por el brillo
del sol de neon anunciando que es domingo.

Las partes que no he puesto nada, sencillamente es que son iguales
a otroas anteriores en las que ya escribi como tocarlo.

Saludos
Marcos
Suggest correction
Give kudos to tab author, rate the tab!
1 2 3 4 5
comments
print report bad tab
guest
You may want to rate the tab now too:
select rating
Wanna post a correction for this tab? Suggest correction