Oops, an error
Loading. Please wait.

Razonar Tab

by Sidra
8 views 1 this week
no commentswrite comment
1 2 3 4 5
3 more votes to show rating
add to favorites
launch autoscroll
font size
0
reset
how to read this tab
guitar tuner
×
Best way to learn
"Razonar"
Autoscroll
slow
fast
+/-
esc
set tempo
stop
Intro x2

   D#                             F
E|---------------------------------------------------------------|
B|-x-11-x-x-11-x-x-11--8h9h8-------------------------------------|
G|---------------------------10h8-x-10-x-x-10-x-x-10-x-x-10------|
D|---------------------------------------------------------------|
A|---------------------------------------------------------------|
E|---------------------------------------------------------------|


   G#          F               A#             G#
E|---------------------------------------------------------------|
B|-x-x-9-x-x-9-----------------x-x-11-x-x-11--8h9h8----8h9h8-----|
G|-------------x-x-10-x-x-10------------------------10-------10--|
D|---------------------------------------------------------------|
A|---------------------------------------------------------------|
E|---------------------------------------------------------------|


G#         F                 A#                    C#
Si en verdad sientes lo que dices hablas no actuas igual

G#         F                 A#                    C#
Porque en ti no existen razones mas que claras de lo que quiero decir


Coro:

G#     C#-D#    C        F   C   C#                G#  C#-D#
                Perdiendo mi vida y tu sin cambiar
E|-----------------------------------------------------------|
B|-.---------------------------------------------------------|
G|-5h6h5-------5h6h5--------------------8-6-5h6h5--8---------|
D|------6---5-------6----333-555-666-------------6-----------|
A|--------6----------6---------------------------------------|
E|-----------------------------------------------------------|

    C          F    C   C#
Cambia las palabras con que intentas...
E|------------|------------------|
B|-6----------|------------------|
G|---8-6-865--|8-6-5h6h5---------|
D|------------|----------6--(x4)-|
A|------------|------------------|
E|------------|------------------|


G#         F                 A#                    C#
La defensa actual tratando de mostrar enojos deficientes en la forma
de expresar

G#         F                 A#                    C#
Tu ira sin razon, que no hace mas que destruir lo que un dia me unio a ti


Coro:

G#     C#-D#    C        F   C   C#                G#  C#-D#
                Perdiendo mi vida y tu sin cambiar
E|-----------------------------------------------------------|
B|-.---------------------------------------------------------|
G|-5h6h5-------5h6h5--------------------8-6-5h6h5--8---------|
D|------6---5-------6----333-555-666-------------6-----------|
A|--------6----------6---------------------------------------|
E|-----------------------------------------------------------|

    C          F    C   C#
Cambia las palabras con que hablaras...
E|------------|------------------|
B|-6----------|------------------|
G|---8-6-865--|8-6-5h6h5---------|
D|------------|----------6--(x4)-|
A|------------|------------------|
E|------------|------------------|

C#          D#      F(agudo)  D#
E|---------------------------------------------------|
B|---------------------------------------------------|
G|---------------------------------------------------|
D|-6-8-8b10-8-66-------8-8b10-8-66(x5)--8-6----------|
A|---------------------------------------------------|
E|---------------------------------------------------|

C#                      D#     C#
No entiendo tu forma de actuar ni sentir...


G#     C#-D#    C        F   C   C#                G#  C#-D#
                No entiendo tu forma de actuar...(ni sentir)
E|-----------------------------------------------------------|
B|-.---------------------------------------------------------|
G|-5h6h5-------5h6h5--------------------8-6-5h6h5--8---------|
D|------6---5-------6----333-555-666-------------6-----------|
A|--------6----------6---------------------------------------|
E|-----------------------------------------------------------|

    C          F    C   C#             G#
No entiendo tu forma de actuar...
E|------------|------------------|
B|-6----------|------------------|
G|---8-6-865--|8-6-5h6h5---------|
D|------------|----------6--(x4)-|
A|------------|------------------|
E|------------|------------------|
Suggest correction
Give kudos to tab author, rate the tab!
1 2 3 4 5
comments
print report bad tab
guest
You may want to rate the tab now too:
select rating
Wanna post a correction for this tab? Suggest correction