Oops, an error
Loading. Please wait.

Tengo Tu Love Tab

version 2
version 2

Whole song

Interactive

6,161 views 25 this week
no commentswrite comment
1 2 3 4 5
please rate
add to favorites
launch autoscroll
font size
0
reset
how to read this tab
guitar tuner
Tab Pro tools
  • play this tab
  • loop segment
  • change instrument
  • show fretboard
  • metronome
×
Best way to learn
"Tengo Tu Love"
Autoscroll
slow
fast
+/-
esc
set tempo
stop
Contributor
Difficulty
intermediate
=·=·=·=·=·=·=·=·=·=·=·=
Tengo Tu Love (2011)
Sie7e 
Mucha Cosa Buena
Tab / Chords
=·=·=·=·=·=·=·=·=·=·=·=

Chords: 

 G      D      Em     C  
|-3-|  |-2-|  |-3-|  |-3-|
|-3-|  |-3-|  |-3-|  |-3-|
|-0-|  |-2-|  |-0-|  |-0-|
|-0-|  |-0-|  |-2-|  |-2-|
|-2-|  |---|  |-2-|  |-3-|
|-3-|  |---|  |-0-|  |---|


The song start with this: 
E|-0h3p0-----------------|
B|-------0h3p0-----------|
G|------------0h2p0------|
D|-----------------0h2p0-|
A|-----------------------|
E|-----------------------|

Intro:
   G                     D
E|---3-x-3---3-------------2-x-2---2----------|
B|---3-x-3---3-----0-------3-x-3---3-----0----|
G|---0-x-0---0--0h2--0-----2-x-2---2--0h2--0--|
D|-----x-----0-----------0---x---0-0----------|
A|-----x---------------------x----------------|
E|-3---x---3-----------------x----------------|

  Em                    C
E|---3-x-3---3-------------2-x-2---2----------|
B|---3-x-3---3-----0-------3-x-3---3-----0----|
G|---0-x-0---0--0h2--0-----0-x-0---0--0h2--0--|
D|-----x-----0---------------x---2-2----------|
A|-2---x----2------------3---x----------------|
E|-0---x---0-----------------x----------------|

Verse:
   G                     D
E|---3-x-3---3-------------2-x-2---2----------|
B|---3-x-3---3-----0-------3-x-3---3-----0----|
G|---0-x-0---0--0h2--0-----2-x-2---2--0h2--0--|
D|-----x-----0-----------0---x---0-0----------|
A|-----x---------------------x----------------|
E|-3---x---3-----------------x----------------|
No tengo un celular con diamantes
De muchos kilates para impresionar...

  Em                    C
E|---3-x-3---3-------------2-x-2---2----------|
B|---3-x-3---3-----0-------3-x-3---3-----0----|
G|---0-x-0---0--0h2--0-----0-x-0---0--0h2--0--|
D|-----x-----0---------------x---2-2----------|
A|-2---x----2------------3---x----------------|
E|-0---x---0-----------------x----------------|
Pero tengo una buena conversación
Con la que te enamoro más y más...

   G                     D
E|---3-x-3---3-------------2-x-2---2----------|
B|---3-x-3---3-----0-------3-x-3---3-----0----|
G|---0-x-0---0--0h2--0-----2-x-2---2--0h2--0--|
D|-----x-----0-----------0---x---0-0----------|
A|-----x---------------------x----------------|
E|-3---x---3-----------------x----------------|
No tengo un Jet Privado
Que compré con una Black Card...

  Em                    C
E|---3-x-3---3-------------2-x-2---2----------|
B|---3-x-3---3-----0-------3-x-3---3-----0----|
G|---0-x-0---0--0h2--0-----0-x-0---0--0h2--0--|
D|-----x-----0---------------x---2-2----------|
A|-2---x----2------------3---x----------------|
E|-0---x---0-----------------x----------------|
Pero tengo una guagua vieja
Con la que siempre vamos a pasear.

(Now with an electric guitar do this part - Reggae Style)
    G                D                Em               C            
E|---------------------------------------------------------------------|
B|---------------------------------------------------------------------|
G|-------------------x-7-x-7-x-7-x-7--x-9-x-9-x-9-x-9--x-5-x-5-x-5-x-5-|  
D|--x-5-x-5-x-5-x-5--x-7-x-7-x-7-x-7--x-9-x-9-x-9-x-9--x-5-x-5-x-5-x-5-|
A|--x-5-x-5-x-5-x-5--x-5-x-5-x-5-x-5--x-7-x-7-x-7-x-7--x-3-x-3-x-3-x-3-|
E|--x-3-x-3-x-3-x-3----------------------------------------------------|
No tengo ropa de Versace
Ni musculatura dura para enseñar
Pero tengo un par de brazos desnudos
Que muy fuerte te van abrazar.

    G                D                Em               C            
E|---------------------------------------------------------------------|
B|---------------------------------------------------------------------|
G|-------------------x-7-x-7-x-7-x-7--x-9-x-9-x-9-x-9--x-5-x-5-x-5-x-5-|  
D|--x-5-x-5-x-5-x-5--x-7-x-7-x-7-x-7--x-9-x-9-x-9-x-9--x-5-x-5-x-5-x-5-|
A|--x-5-x-5-x-5-x-5--x-5-x-5-x-5-x-5--x-7-x-7-x-7-x-7--x-3-x-3-x-3-x-3-|
E|--x-3-x-3-x-3-x-3----------------------------------------------------|
No soy como Mariah Carey
Con un jacuzzi lleno de agua Evian
Pero tengo una chozita en la playa
Para que te bañes con aguita de mar...

   G                D
E|----------------------------|
B|----------------------------|
G|------------------7xx7xx7x7-|
D|-5xx5xx5x5xx5xx5x-7xx7xx7x7-|
A|-5xx5xx5x5xx5xx5x-5xx5xx5x5-|
E|-3xx3xx3x3xx3xx3x-----------|
Ricky tiene cara linda
Enrique Iglesias los millones
Aventura las mansiones
Pero...

Chorus:
    G                D                Em               C            
E|---------------------------------------------------------------------|
B|---------------------------------------------------------------------|
G|-------------------x-7-x-7-x-7-x-7--x-9-x-9-x-9-x-9--x-5-x-5-x-5-x-5-|  
D|--x-5-x-5-x-5-x-5--x-7-x-7-x-7-x-7--x-9-x-9-x-9-x-9--x-5-x-5-x-5-x-5-|
A|--x-5-x-5-x-5-x-5--x-5-x-5-x-5-x-5--x-7-x-7-x-7-x-7--x-3-x-3-x-3-x-3-|
E|--x-3-x-3-x-3-x-3----------------------------------------------------|
Yo tengo tu amor
I got your love
Yo tengo tu amor
Yo tengo tu love, Yeah...

    G                D                Em               C            
E|---------------------------------------------------------------------|
B|---------------------------------------------------------------------|
G|-------------------x-7-x-7-x-7-x-7--x-9-x-9-x-9-x-9--x-5-x-5-x-5-x-5-|  
D|--x-5-x-5-x-5-x-5--x-7-x-7-x-7-x-7--x-9-x-9-x-9-x-9--x-5-x-5-x-5-x-5-|
A|--x-5-x-5-x-5-x-5--x-5-x-5-x-5-x-5--x-7-x-7-x-7-x-7--x-3-x-3-x-3-x-3-|
E|--x-3-x-3-x-3-x-3----------------------------------------------------|
Yo tengo tu amor
I got your love
Yo tengo tu amor
Yo tengo tu love, Yeah...

    G                D                Em               C            
E|---------------------------------------------------------------------|
B|---------------------------------------------------------------------|
G|-------------------x-7-x-7-x-7-x-7--x-9-x-9-x-9-x-9--x-5-x-5-x-5-x-5-|  
D|--x-5-x-5-x-5-x-5--x-7-x-7-x-7-x-7--x-9-x-9-x-9-x-9--x-5-x-5-x-5-x-5-|
A|--x-5-x-5-x-5-x-5--x-5-x-5-x-5-x-5--x-7-x-7-x-7-x-7--x-3-x-3-x-3-x-3-|
E|--x-3-x-3-x-3-x-3----------------------------------------------------|
Uh, Ah! Ripitipi Tom Bom
Uh, Ah! Ripitipi Bom Bom Bom
Uh, Ah! Ripitipi Tengo tu Love, Love!

Verse 2:
    G                D                Em               C            
E|---------------------------------------------------------------------|
B|---------------------------------------------------------------------|
G|-------------------x-7-x-7-x-7-x-7--x-9-x-9-x-9-x-9--x-5-x-5-x-5-x-5-|  
D|--x-5-x-5-x-5-x-5--x-7-x-7-x-7-x-7--x-9-x-9-x-9-x-9--x-5-x-5-x-5-x-5-|
A|--x-5-x-5-x-5-x-5--x-5-x-5-x-5-x-5--x-7-x-7-x-7-x-7--x-3-x-3-x-3-x-3-|
E|--x-3-x-3-x-3-x-3----------------------------------------------------|
El tiempo vale más que un Rolex
El amor más que un table dance.
El amigo más que un peso en el bolsillo
Como el que tú acabas de gastar.

    G                D                Em               C            
E|---------------------------------------------------------------------|
B|---------------------------------------------------------------------|
G|-------------------x-7-x-7-x-7-x-7--x-9-x-9-x-9-x-9--x-5-x-5-x-5-x-5-|  
D|--x-5-x-5-x-5-x-5--x-7-x-7-x-7-x-7--x-9-x-9-x-9-x-9--x-5-x-5-x-5-x-5-|
A|--x-5-x-5-x-5-x-5--x-5-x-5-x-5-x-5--x-7-x-7-x-7-x-7--x-3-x-3-x-3-x-3-|
E|--x-3-x-3-x-3-x-3----------------------------------------------------|
Hablar vale más que un iPhone
Y más cuando alguien te quiere escuchar.
Saber vale más que el diploma
Como el que tú acabas de enmarcar.

   G               D                Em               C            
E|--3-------3-------2-------2-----------------------------------------|
B|--3-------3-------3-------3-----------------------------------------|
G|--0-------0-------2-------2--------x-9-x-9-x-9-x-9--x-5-x-5-x-5-x-5-|
D|--0-------0-------0-------0--------x-9-x-9-x-9-x-9--x-5-x-5-x-5-x-5-|
A|--2-------2-------0-------0--------x-7-x-7-x-7-x-7--x-3-x-3-x-3-x-3-|
E|--3-------3---------------------------------------------------------|
El compromiso vale más que el anillo
No hay palabra si no hay corazón
El silencio vale más que un grito
Cuando el grito no es por amor.

                                Em               C            
E|----------------------------------------------------------------|
B|----------------------------------------------------------------|
G|-------------------------------x-9-x-9-x-9-x-9--x-5-x-5-x-5-x-5-|
D|-------------------------------x-9-x-9-x-9-x-9--x-5-x-5-x-5-x-5-|
A|-------------------------------x-7-x-7-x-7-x-7--x-3-x-3-x-3-x-3-|
E|----------------------------------------------------------------|
Tu mirada vale más que el oro
Enseñarte vale más que un tabú
Y aunque pueda tenerlo todo, todo
Nunca hay nada si me faltas tú

   G                D
E|----------------------------|
B|----------------------------|
G|------------------7xx7xx7x7-|
D|-5xx5xx5x5xx5xx5x-7xx7xx7x7-|
A|-5xx5xx5x5xx5xx5x-5xx5xx5x5-|
E|-3xx3xx3x3xx3xx3x-----------|
Chayanne baila bien bonito,
Fonsi canta afinaito
Juanes los grammys latinos
Pero...

Chorus:
    G                D                Em               C            
E|---------------------------------------------------------------------|
B|---------------------------------------------------------------------|
G|-------------------x-7-x-7-x-7-x-7--x-9-x-9-x-9-x-9--x-5-x-5-x-5-x-5-|  
D|--x-5-x-5-x-5-x-5--x-7-x-7-x-7-x-7--x-9-x-9-x-9-x-9--x-5-x-5-x-5-x-5-|
A|--x-5-x-5-x-5-x-5--x-5-x-5-x-5-x-5--x-7-x-7-x-7-x-7--x-3-x-3-x-3-x-3-|
E|--x-3-x-3-x-3-x-3----------------------------------------------------|
Yo tengo tu amor
I got your love
Yo tengo tu amor
Yo tengo tu love, Yeah...

    G                D                Em               C            
E|---------------------------------------------------------------------|
B|---------------------------------------------------------------------|
G|-------------------x-7-x-7-x-7-x-7--x-9-x-9-x-9-x-9--x-5-x-5-x-5-x-5-|  
D|--x-5-x-5-x-5-x-5--x-7-x-7-x-7-x-7--x-9-x-9-x-9-x-9--x-5-x-5-x-5-x-5-|
A|--x-5-x-5-x-5-x-5--x-5-x-5-x-5-x-5--x-7-x-7-x-7-x-7--x-3-x-3-x-3-x-3-|
E|--x-3-x-3-x-3-x-3----------------------------------------------------|
Yo tengo tu amor
I got your love
Yo tengo tu amor
Yo tengo tu love, Yeah...

Solo:
                                             (fast picking)
E|--/7---7-7-7--8-8-8-7-5--5-5-5--7-7-7-5--0---000022233--2-3---|
B|--/8---8-8-8--8-8-8-8-7--7-7-7--7-7-7-7--5--------------------|
G|--------------------------------------------------------------|  
D|--------------------------------------------------------------|
A|--------------------------------------------------------------|
E|--------------------------------------------------------------|

E|-5^-5^-5^-5-2-3--5^-5^-5^-5-2-3-|
B|--------------------------------|
G|--------------------------------|
D|--------------------------------|
A|--------------------------------|
E|--------------------------------|

(Here strum this chords quietly)

G
No estoy entre los más bellos
 D
De People en Español
Em
Pero tu mirada me dice
             C
Que soy el Brad Pitt de tu corazón, je!

   G                D
E|----------------------------|
B|----------------------------|
G|------------------7xx7xx7x7-|
D|-5xx5xx5x5xx5xx5x-7xx7xx7x7-|
A|-5xx5xx5x5xx5xx5x-5xx5xx5x5-|
E|-3xx3xx3x3xx3xx3x-----------|
Lady Gaga gana en Twitter
Y también en el facebook,
Justin Bieber en YouTube
Pero...

Chorus:
    G                D                Em               C            
E|---------------------------------------------------------------------|
B|---------------------------------------------------------------------|
G|-------------------x-7-x-7-x-7-x-7--x-9-x-9-x-9-x-9--x-5-x-5-x-5-x-5-|  
D|--x-5-x-5-x-5-x-5--x-7-x-7-x-7-x-7--x-9-x-9-x-9-x-9--x-5-x-5-x-5-x-5-|
A|--x-5-x-5-x-5-x-5--x-5-x-5-x-5-x-5--x-7-x-7-x-7-x-7--x-3-x-3-x-3-x-3-|
E|--x-3-x-3-x-3-x-3----------------------------------------------------|
Yo tengo tu amor
I got your love
Yo tengo tu amor
Yo tengo tu love, Yeah...

    G                D                Em               C            
E|---------------------------------------------------------------------|
B|---------------------------------------------------------------------|
G|-------------------x-7-x-7-x-7-x-7--x-9-x-9-x-9-x-9--x-5-x-5-x-5-x-5-|  
D|--x-5-x-5-x-5-x-5--x-7-x-7-x-7-x-7--x-9-x-9-x-9-x-9--x-5-x-5-x-5-x-5-|
A|--x-5-x-5-x-5-x-5--x-5-x-5-x-5-x-5--x-7-x-7-x-7-x-7--x-3-x-3-x-3-x-3-|
E|--x-3-x-3-x-3-x-3----------------------------------------------------|
Yo tengo tu amor
I got your love
Yo tengo tu amor
Yo tengo tu love, Yeah...

    G                D                Em               C            
E|---------------------------------------------------------------------|
B|---------------------------------------------------------------------|
G|-------------------x-7-x-7-x-7-x-7--x-9-x-9-x-9-x-9--x-5-x-5-x-5-x-5-|  
D|--x-5-x-5-x-5-x-5--x-7-x-7-x-7-x-7--x-9-x-9-x-9-x-9--x-5-x-5-x-5-x-5-|
A|--x-5-x-5-x-5-x-5--x-5-x-5-x-5-x-5--x-7-x-7-x-7-x-7--x-3-x-3-x-3-x-3-|
E|--x-3-x-3-x-3-x-3----------------------------------------------------|
Yo tengo tu amor
I got your love
Yo tengo tu amor
Yo tengo tu love, Yeah...

    G                D                Em               C            
E|---------------------------------------------------------------------|
B|---------------------------------------------------------------------|
G|-------------------x-7-x-7-x-7-x-7--x-9-x-9-x-9-x-9--x-5-x-5-x-5-x-5-|  
D|--x-5-x-5-x-5-x-5--x-7-x-7-x-7-x-7--x-9-x-9-x-9-x-9--x-5-x-5-x-5-x-5-|
A|--x-5-x-5-x-5-x-5--x-5-x-5-x-5-x-5--x-7-x-7-x-7-x-7--x-3-x-3-x-3-x-3-|
E|--x-3-x-3-x-3-x-3----------------------------------------------------|
Yo tengo tu amor
I got your love
Yo tengo tu amor
Yo tengo tu love, Yeah...

Then... strum this Chords...
G
Yo tengo tu amor
 D
tengo tu love
Em               C
(yo) tengo tu amor, uhh...

Thats it... enjoy!!
comments
We did not receive enough feedback on this tab! Please rate:
print report bad tab
1 2 3 4 5
I want to post or [tab]
guest
You may want to rate the tab now too:
select rating
Please do not post tabs as comments. Select "correction" instead!