Oops, an error
Loading. Please wait.

Gracias Tab

18 views 1 this week
no commentswrite comment
1 2 3 4 5
3 more votes to show rating
add to favorites
launch autoscroll
font size
0
reset
how to read this tab
guitar tuner
×
Best way to learn
"Gracias"
Autoscroll
slow
fast
+/-
esc
set tempo
stop
Guitarra

    SOL    RE              MIm          DO              SOL
E---3-------3p2----2p0-----0---------------------------------|
B----------3---3-------0-----0----1p0----1------------1-0----|
G-----0---2-----2--------0-----0------0----0--------0--------|
D--------0-----------------------------0-----2--0h2----------|
A--------------------------2-------------3-------------------|
E---3---------------------------------------------------3----|

E-----3p2----2p0-----0----------3----------------------------|
B----3---3-------0-----0----1p0-----1p0---0------------------|
G---2-----2--------0-----0--------------2---0----------------|
D--0------------------------------------------0--------------|
A--------------------2---------------------------------------|
E------------------------------------------------------------|

E--3--------3--------3--------3--------3--------3----------2-|
B------00-------01-------11-------13-------33-------33-----2-|
G----0----0---0----0---0----0---0----0---0----0---0----1p0-0-|
D----------------------------------------------------------0-|
A----------------------------------------------------------2-|
E--3--------3--------3--------3--------3--------3----------3-|


SOL          RE    MIm
Sólo para decirte gracias,
       DO                          SOL   RE
cada espacio, cada encuentro, cada ser humano.
SOL          RE       MIm
Sólo para cantar tu amor,
      DO               SOL
en la cima de mis plenitudes
          RE        DO          SOL
y en el dolor estás tú, siempre tú
       RE                        MIm
ilusionado en mis anhelos y mis sueños,
        DO                       SOL
sobreviviendo mis fracasos y mis miedos,
            RE          DO           SOL
creyendo en mí, queriéndome, junto a mí...


** Espero la saquen ya que es solo oido, un saludos para la gente
   de la parroquia Cristo Salvador de el 1er sector de V.E.S. Lima-Peru
** pyarock@
Suggest correction
Give kudos to tab author, rate the tab!
1 2 3 4 5
comments
print report bad tab
guest
You may want to rate the tab now too:
select rating
Wanna post a correction for this tab? Suggest correction