Oops, an error
Loading. Please wait.

La Misma Historia Tab

30 views 1 this week
no commentswrite comment
1 2 3 4 5
3 more votes to show rating
add to favorites
launch autoscroll
font size
0
reset
how to read this tab
guitar tuner
Autoscroll
slow
fast
+/-
esc
set tempo
stop
Help us to improve Ultimate-Guitar.com Take our survey!
×
Mi primera transcripcion...
No pude sacar la rola completa, hize lo que pude solo por la
necesidad de tocar esa cancion.
Ahi les va...


Intro

/=slide

                                                     x3
                                                      |
                                                      |
                                                      |
                                                      |
                                                      v
                 (1)                                 (2)


e---0-0-0-0--------0--0-----------0-0-0-0---|----0--0----------------
b---5/1/3-1--------0--1--1--------5/1/3/5---|----0--1/8--------------
g---0-0-0-0--------0--0--0--------0-0-0-0---|----0--0-0--------------
d---0-0-0-0--------0--0-----------0-0-0-0---|----0--0-0--------------
a-------------------------------------------|------------------------
E-------------------------------------------|------------------------


Puedes sustituir la parte (2) por lo siguiete, como gustess...


        (2)*

e--0--0--3----------
b--0--1--1----------
g--0--0--0----------
d--0--0--0----------
a-------------------
E-------------------





[ch]C[/ch]    [ch]Em[/ch]              [ch]Am[/ch]           [ch]G[/ch]        [ch]C[/ch]    [ch]Em[/ch]
        La misma historia se vuelve a repe-eeetir
         [ch]Am[/ch]             [ch]G[/ch]           [ch]C[/ch]     [ch]Em[/ch]
 Mi corazon roto a la vuelta una veeeez mas
        [ch]Am[/ch]         [ch]G[/ch]               [ch]C[/ch]     [ch]Em[/ch]
 El dia 20 se acerca y no hay marcha atraas
             [ch]Am[/ch]        [ch]G[/ch]            [ch]C[/ch]   [ch]Em[/ch]      [ch]Am[/ch]   [ch]G[/ch]
 Mientras mi alma se desgarra sin paaarar




(Se repiten los mismos acordes)

[ch]C[/ch] [ch]Em[/ch] [ch]Am[/ch] [ch]G[/ch]



En el puente se tocan los siguientes acordes en ese ornden:

[ch]C[/ch] [ch]Em[/ch] [ch]C[/ch] [ch]G[/ch]

Es todo lo que tengo hasta ahora, en cuanto saque lo demas lo mando!!.

Por: Gaston Santos!
Suggest correction
Give kudos to tab author, rate the tab!
1 2 3 4 5
comments
print report bad tab
guest
You may want to rate the tab now too:
select rating
Wanna post a correction for this tab? Suggest correction