Oops, an error
Loading. Please wait.

Mi Mundo Cruel Chords

82 views 1 this week
no commentswrite comment
1 2 3 4 5
3 more votes to show rating
add to favorites
launch autoscroll
font size
0
reset
transpose
0
reset
simplify chords
display chords
guitar tuner
Autoscroll
slow
fast
+/-
esc
set tempo
stop
Help us to improve Ultimate-Guitar.com Take our survey!
×
Afinacion: Standar

Acordes:
      Cmaj7    Cmaj7*   E/fa#     G6
e)----------------------------------------]
b)----------------------------------------]
g)----------------------------------------]
d)---2----------4-------------------------]
a)---3----------5-------2----------2------]
E)----------------------2----------3------]

Intro:

    Cmaj7  Cmaj7-Cmaj7*-Cmaj7
e)---------------------------------------------------]
b)---------------------------------------------------]
g)---------------------------------------------------]
d)---222--2h4444h2--2h4444h2---2h4444h2--2h4444h2------]
a)---333--3h5555h3--3h5555h3---3h5555h3--3h5555h3------]
E)---------------------------------------------------]

Y el intro termina asi
       E/fa#       G6
e)-----------------------]
b)-----------------------]
g)-----------------------]
d)-----------------------]
a)-----2----------2------]
E)-----2----------3------]

Cmaj7*         Cmaj7-Cmaj7*-Cmaj7 (slide como el intro todo menos el coro)
  Hoy desperte
                    Cmaj7-Cmaj*7*-Cmaj7
y busque en mi cama
           Cmaj7-Cmaj*7*-Cmaj7                    Cmaj7
tu pelo que .... ...... que se enredaba en mi.
Cmaj7*      Cmaj7-Cmaj7*-Cmaj7
 Hoy camine
                  Cmaj7-Cmaj7*-Cmaj7
Por toda mi casa
               Cmaj7-Cmaj7*-Cmaj7
Pense y pense
           E/F#       G6
Me di cuenta que falle

(De aqui en adelante ya no se hace Slide de acorde a acorde)

Coro:
      Cmaj7*
Perdoname
               Cmaj7
Hoy perdi el rumbo
    Cmaj7*               Cmaj7
Termine en un mundo cruel
      Cmaj7*
Perdoname
              Cmaj7
Hoy dejo mi orgullo
           Cmaj7*       Cmaj7
te entrego mi vida fiel


     Cmaj7*
Hoy despege
                     Cmaj7
Mis pies de la tierra
Cmaj7*
Me fui a volar
              Cmaj7
Y te deje atras
          Cmaj7*
Y al regresar
              Cmaj7
Senti la caida
              Cmaj7*
Vuelvo a empezar
  E/F#                G6
quiero que me veas bien


Coro:


Uhhh      uhh   uhh     uhh     uhh     uhh
Cmaj7*  Cmaj7   Cmaj7*  Cmaj7   Cmaj7*  Cmaj7( se baja A intensidad)

Y pasa a estos dos acordes
E/F# Y termina en G6


Listo aver si les ayuda!:)
Suggest correction
Give kudos to tab author, rate the tab!
1 2 3 4 5
comments
print report bad tab
guest
You may want to rate the tab now too:
select rating
Wanna post a correction for this tab? Suggest correction