Oops, an error
Loading. Please wait.

Directions tab

version 1
version 1

Whole song

Interactive

3,471 views 3 this week
8 commentsread comments
1 2 3 4 5
x 3
add to favorites
×
Save as Personal and add changes to this tab that will be seen only by you. Learn more ›
×
You can save this tab as Personal to edit and correct it or add notes. All changes will be seen only by you. Learn more »
launch autoscroll
font size
0
reset
how to read this tab
guitar tuner
edit
Autoscroll
slow
fast
+/-
esc
set tempo
stop
Author
---------------------------------------------------------------------------
                             Sienna Skies - Directions
---------------------------------------------------------------------------

Tabbed by: Cobjay (www.youtube.com/user/cobjayguitar)
Email: cobjay_is_here@hotmail.com

Tuning: Drop C# [C#,G#,C#,F#,A#,D#]

Check out my cover: http://www.youtube.com/watch?v=HjTiNUNUf6Y

Intro
Guitar 1.
D#|-------------------------------------------------12h13---------|
A#|---10--------------------13---10-----------------------13------|
F#|-----10-9----------9-10---------10-9--------9-10---------------|
C#|----------10---10-------------------10---10--------------------|
G#|---------------------------------------------------------------|
C#|---------------------------------------------------------------|

D#|---------------------------------------------------------------|
A#|---10--------------------13---10-----------------11------------|
F#|-----10-9----------9-10---------10-9--------9-10---------------|
C#|----------10---10-------------------10---10--------------------|
G#|---------------------------------------------------------------|
C#|---------------------------------------------------------------|

D#|-------------------------------------------------12h13---------|
A#|---10--------------------13---10-----------------------13------|
F#|-----10-9----------9-10---------10-9--------9-10---------------|
C#|----------10---10-------------------10---10--------------------|
G#|---------------------------------------------------------------|
C#|---------------------------------------------------------------|

D#|---------------------------------------------------------------|
A#|---10--------------------13---10-----------------11------------|
F#|-----10-9----------9-10---------10-9--------9-10---------------|
C#|----------10---10-------------------10---10--------------------|
G#|---------------------------------------------------------------|
C#|---------------------------------------------------------------|

Guitar 2. 
D#|-------------------------------------------|
A#|-------------------------------------------|
F#|-------------------------------------------|
C#|--0-----8-----5-----10---------------------| x4
G#|--0-x8--8-x8--5-x8--10-x8------------------|
C#|--0-----8-----5-----10---------------------|

Verse
D#|--------------------------------------------|
A#|---6--------------6-------------------------|
F#|---9b-------------9b------------------------|
C#|--------------------------------------------|
G#|-0----0-0-0000--0----0-0-0000---------------|
C#|-0----0-0-0000--0----0-0-0000---------------|
    .    . . ....  .    . . ....

D#|----------------------------------------|
A#|---6--------------6--------6------------|
F#|---9b-------------9b-----9---9----------|
C#|----------------------------------------|
G#|-0----0-0-0000--0----0-0----------------|
C#|-0----0-0-0000--0----0-0----------------|
    .    . . ....  .    . . 

D#|----------------------------------------|
A#|---6--------------6--------6------------|
F#|---9b-------------9b-----9---9----------|
C#|----------------------------------------|
G#|-0----0-0-0000--0----0-0----------------|
C#|-0----0-0-0000--0----0-0----------------|
    .    . . ....  .    . . 
D#|----------------------------------------|
A#|---6--------------6--------6------------|
F#|---9b-------------9b-----9---9----------|
C#|----------------------------------------|
G#|-0----0-0-0000--0----0-0----------------|
C#|-0----0-0-0000--0----0-0----------------|
    .    . . ....  .    . . 

D#|----------------------------------------|
A#|---6--------------6--------6------------|
F#|---9b-------------9b-----9---9----------|
C#|----------------------------------------|
G#|-0----0-0-0000--0----0-0----------------|
C#|-0----0-0-0000--0----0-0----------------|
    .    . . ....  .    . . 

D#|----------------------------------------|
A#|----------------------------------------|
F#|----------------------------------------|
C#|----------------------------------------|
G#|-0~-0~-0~---0-0000—-0~-0~-0~---0-0000---|
C#|-0~-0~-0~---0-0000—-0~-0~-0~---0-0000---|
    .  .  .    . ....  .  .  .    . ....

D#|------------------------------------------|
A#|------------------------------------------|
F#|------------------------------------------|
C#|------------------------------------------|
G#|-0~-0~-0~---0-0000—-0~-0~-0~--0000--0000--|
C#|-0~-0~-0~---0-0000-—0~-0~-0~--0000--0000--|
    .  .  .    . ....  .  .  .   ....  ....

D#|----------------------------------------|
A#|----------------------------------------|
F#|----------------------------------------|
C#|----------------------------------------|
G#|-0~-0~-0~---0-0000—-0~-0~-0~---0-0000---|
C#|-0~-0~-0~---0-0000—-0~-0~-0~---0-0000---|
    .  .  .    . ....  .  .  .    . ....

D#|-----------------------------------------------|
A#|-----------------------------------------------|
F#|-----------------------------------------------|
C#|-----------------------------------------------|
G#|-0~-0~-0~---0-0000—-0~-0~-0~---0-0000--0~-0~-0~|
C#|-0~-0~-0~---0-0000—-0~-0~-0~---0-0000—-0~-0~-0~|
    .  .  .    . ....  .  .  .    . ....


Chorus
D#|-------------------------------------------------12h13---------|
A#|---10--------------------13---10-----------------------13------|
F#|-----10-9----------9-10---------10-9--------9-10---------------|
C#|----------10---10-------------------10---10--------------------|
G#|---------------------------------------------------------------|
C#|---------------------------------------------------------------|

D#|---------------------------------------------------------------|
A#|---10--------------------13---10-----------------11------------|
F#|-----10-9----------9-10---------10-9--------9-10---------------|
C#|----------10---10-------------------10---10--------------------|
G#|---------------------------------------------------------------|
C#|---------------------------------------------------------------|

D#|-------------------------------------------------12h13---------|
A#|---10--------------------13---10-----------------------13------|
F#|-----10-9----------9-10---------10-9--------9-10---------------|
C#|----------10---10-------------------10---10--------------------|
G#|---------------------------------------------------------------|
C#|---------------------------------------------------------------|

D#|---------------------------------------------------------------|
A#|---10--------------------13---10-----------------11------------|
F#|-----10-9----------9-10---------10-9--------9-10---------------|
C#|----------10---10-------------------10---10--------------------|
G#|---------------------------------------------------------------|
C#|---------------------------------------------------------------|

Verse 2. 

D#|----------------------------------------------------------|
A#|----------------------------------------------------------|
F#|----------------------------------------------------------|
C#|----------------------------------------------------------|
G#|-00-00-000---000--0000-0000--00-00-000---000--0000-0000---|
C#|-00-00-000---000--0000-0000--00-00-000---000--0000-0000---|
    .. .. ...   ...  .... ....  .. .. ...   ...  .... ....


D#|-------------------------------------------------12h13------|
A#|-------------------------------------------------------13---|
F#|--------------------------------------------9-10------------|
C#|-----------------------------------------10-----------------|
G#|-00-00-000---000--0000-0000--00-00-000----------------------|
C#|-00-00-000---000--0000-0000--00-00-000----------------------|
    .. .. ...   ...  .... ....  .. .. ...  

Chorus
D#|-------------------------------------------------12h13---------|
A#|---10--------------------13---10-----------------------13------|
F#|-----10-9----------9-10---------10-9--------9-10---------------|
C#|----------10---10-------------------10---10--------------------|
G#|---------------------------------------------------------------|
C#|---------------------------------------------------------------|

D#|---------------------------------------------------------------|
A#|---10--------------------13---10-----------------11------------|
F#|-----10-9----------9-10---------10-9--------9-10---------------|
C#|----------10---10-------------------10---10--------------------|
G#|---------------------------------------------------------------|
C#|---------------------------------------------------------------|

D#|-------------------------------------------------12h13---------|
A#|---10--------------------13---10-----------------------13------|
F#|-----10-9----------9-10---------10-9--------9-10---------------|
C#|----------10---10-------------------10---10--------------------|
G#|---------------------------------------------------------------|
C#|---------------------------------------------------------------|

D#|---------------------------------------------------------------|
A#|---10--------------------13---10-----------------11------------|
F#|-----10-9----------9-10---------10-9--------9-10---------------|
C#|----------10---10-------------------10---10--------------------|
G#|---------------------------------------------------------------|
C#|---------------------------------------------------------------|

D#|------------------------------------------------------|
A#|------------------------------------------------------|
F#|-9-----12-----14-----12------7-----9-----12-----------|
C#|-X-x12--X-x4---X-x16--X-x12--X-x8--X-x4---X-x4--------|
G#|-7-----10-----12-----10------5-----7-----10-----------|
C#|------------------------------------------------------|

D#|---------------------------20Tr--22Tr-------|
A#|--18Tr--20Tr---22Tr--15Tr---x16----x8-------|
F#|---x24----x8----x24----x8-------------------|
C#|--------------------------------------------|
G#|--------------------------------------------|
C#|--------------------------------------------|

D#|-20/22\20-17---20/22\20--15---15/17\15----------------|
A#|------------------------------------------------------|
F#|------------------------------------------------------|
C#|------------------------------------------------------|
G#|------------------------------------------------------|
C#|------------------------------------------------------|


D#|--17---------------------20---17-------------------20/22\20---|
A#|----18-17----------17-18--------18-17--------17-18------------|
F#|-----------17---17-------------------17---17------------------|
C#|--------------------------------------------------------------|
G#|--------------------------------------------------------------|
C#|--------------------------------------------------------------|

D#|--17---------------------20---17x8-15x5-15h17p15--12-12/13v---|
A#|----18-17----------17-18--------------------------------------|
F#|-----------17---17--------------------------------------------|
C#|--------------------------------------------------------------|
G#|--------------------------------------------------------------|
C#|--------------------------------------------------------------|

End. 
Suggest correction
Creating personal tab
Creating personal tab
You can edit any tab online and save it as your Personal.

You can edit, replace or remove any tab part or add personal notes – all changes will be seen only by you.

Personal tabs can be accessed anytime from any device, even offline.
Learn more »
Give kudos to tab author, rate the tab!
1 2 3 4 5
comments
print report bad tab
8 comments total. Showing first comments.
0 reply
justjoshuaaa 155 Oct 04, 2012 05:00 AM

Perfect tab dude.

0 reply
Cobjayy 221 Oct 07, 2012 09:52 PM

Thanks bro! Glad it helped :D

0 reply
justjoshuaaa 155 Nov 08, 2012 05:33 PM

Just a couple corrections because I don't want to submit a new tab for this because yours is pretty spot on, after the first chorus trem open on the thick e string as many times as you need.

guest
You may want to rate the tab now too:
select rating
Wanna post a correction for this tab? Suggest correction