Oops, an error
Loading. Please wait.

La Orgullosa Tab

40 views 3 this week
no commentswrite comment
1 2 3 4 5
3 more votes to show rating
add to favorites
×
Save as Personal and add changes to this tab that will be seen only by you. Learn more ›
×
You can save this tab as Personal to edit and correct it or add notes. All changes will be seen only by you. Learn more »
save as personal
new!
launch autoscroll
font size
0
reset
how to read this tab
guitar tuner
Autoscroll
slow
fast
+/-
esc
set tempo
stop
Aca les paso el intro de La Orgullosa.

Los acordes del verso son: Gm - F
El coro: F - Gm

 e|---6---6---5-|-------------|---5---5---------------|
 b|-8---8---8---|--6--4-------|-6---6---6-8-----------|
 g|-------------|-------5-----|-------------7---------|
 d|-------------|---------7---|---------------8--7-5--|
 a|-------------|-------------|-----------------------|
 E|-------------|-------------|-----------------------|

 e|---6---6---5-|--------------|---5---5---------------|
 b|-8---8---8---|--6--4--------|-6---6---6-8-10-11-----|
 g|-------------|-------5------|-----------------------|
 d|-------------|----------7---|-----------------------|
 a|-------------|--------------|-----------------------|
 E|-------------|--------------|-----------------------|


 e|------------------11--11--8--------|-------8--11?15-15?10-10---------|
 b|-----11-10------------------10-----|----10--------------------11-----|
 g|--12-------12-10---------------10--|-10---------------------------12-|
 d|-----------------------------------|---------------------------------|
 a|-----------------------------------|---------------------------------|
 E|-----------------------------------|---------------------------------|


 e|-------10-----------11--11-8-------|-------8----------------------|
 b|----11----11-----------------10----|----10---10-------------------|
 g|-12----------12-10--------------10-|-10---------10----10-12-------|
 d|-----------------------------------|---------------12-------------|
 a|-----------------------------------|------------------------------|
 E|-----------------------------------|------------------------------|

Espero que les guste.
Rodrigo
Octubre 28, 2011
Suggest correction
Give kudos to tab author, rate the tab!
1 2 3 4 5
comments
print report bad tab
guest
Wanna post a correction for this tab? Suggest correction