Oops, an error
Loading. Please wait.

Mujer Por Dinero Tab

23 views 1 this week
no commentswrite comment
1 2 3 4 5
3 more votes to show rating
add to favorites
launch autoscroll
font size
0
reset
how to read this tab
guitar tuner
Autoscroll
slow
fast
+/-
esc
set tempo
stop
Help us to improve Ultimate-Guitar.com Take our survey!
×
Este es el intro:

E|--------------|-------------------|----------|
B|------7-------|------5------5-----|--7-------|
G|----7---7-----|----6------6---6---|----7-----| (x2)
D|--9-------9---|--7------7-------7-|------9---|
A|--------------|-------------------|----------|
E|--------------|-------------------|----------|


E|---7-9-10-9-7-----|----7-10----|----9-12-14-|
B|-7------------8---|--8------10-|-10---------|
G|------------------|------------|------------|
D|------------------|------------|------------|
A|------------------|------------|------------|
E|------------------|------------|------------|

E|---7-9-10-9-7-----|----7-10--7--|
B|-7------------8---|--8----------|
G|------------------|-------------|
D|------------------|-------------|
A|------------------|-------------|
E|------------------|-------------|

E|---6-7-9-7-6--9-7--|--10-9----7-----------|
B|-7-----------------|-------10---8/10-8-7--|
G|-------------------|----------------------|
D|-------------------|----------------------|
A|-------------------|----------------------|
E|-------------------|----------------------|


Gracias,
Rodrigo - 2 de Noviembre, 2011
Suggest correction
Give kudos to tab author, rate the tab!
1 2 3 4 5
comments
print report bad tab
guest
You may want to rate the tab now too:
select rating
Wanna post a correction for this tab? Suggest correction