Oops, an error
Loading. Please wait.

Glosoli Bass Tab

15,730 views 3 this week
7 commentsread comments
1 2 3 4 5
x 7
add to favorites
launch autoscroll
font size
0
reset
guitar tuner
Autoscroll
slow
fast
+/-
esc
set tempo
stop
Help us to improve Ultimate-Guitar.com Take our survey!
×
Author
-------------------------------------------------------------------------------
			     Glósóli - Sigur Ròs
-------------------------------------------------------------------------------
Very simple song off of the new album Takk...I'm positive this is correct, the only 
I can't and won't get is the bowed guitar parts.
Tabbed by:mogwai777/chris vinkler
Email:

Tuning:Standard

Album Version Bass Verse
G|---------------------------------------------------------------------------|
D|---------------------------------------------------------------------------|
A|---------------------------------------------------------------------------|
E|10-/-5--/-7/3--------------------------------------------------------------|
Live Version Bass Verse in Drop D
G|---------------------------------------------------------------------------|
D|---------------------------------------------------------------------------|
A|---------------------------------------------------------------------------|
D|-0--/-7--/-9/5-------------------------------------------------------------|
Bass Chorus:
G|---------------------------------------------------------------------------|
D|---------------------------------------------------------------------------|
A|---------------------------------------------------------------------------|
E|10--/--12--/--8--/--7------------------------------------------------------|

Pre-Climax/Climax Bass
G|---------------------------------------------------------------------------|
D|---------------------------------------------------------------------------|
A|---------------------------------------------------------------------------|
E|10x8--12x8--8x8--7x8-------------------------------------------------------|
And the Guitar for the climax is just playing what the bass is playing only with high 
chords being finger picked, each played 8 times
e|10-12-8--7-----------------------------------------------------------------|
B|x--x--x--x-----------------------------------------------------------------|
G|7--9--5--4-----------------------------------------------------------------|
D|---------------------------------------------------------------------------|
A|---------------------------------------------------------------------------|
E|---------------------------------------------------------------------------|
And if your fingers stretch well enough, you can play it like I do to get more sound.
e|10-12-8--7-----------------------------------------------------------------|
B|x--x--x--x-----------------------------------------------------------------|
G|7--9--5--4-----------------------------------------------------------------|
D|x--x--x--x-----------------------------------------------------------------|
A|5--7--3--2-----------------------------------------------------------------|
E|---------------------------------------------------------------------------|

Like I said, very very simple song, yet effective.

Song Order:
Bass Verse x15
Bass Chorus x2
Bass Verse x14
Bass Chorus x2
Pre-Climax Bass x5
Climax Bass and Guitar x5
| /  slide up
| \  slide down
| h  hammer-on
| p  pull-off
| ~  vibrato
| +  harmonic
| x  Mute note
===============================================================================
Suggest correction
comments
print report bad tab
7 comments total. Showing first comments.
0 reply
TBonegtr23 10 Apr 10, 2007 02:23 AM

This tab is good, it got me started...but its not all that right...well, just the guitar part. I actually tuned my guitar DDDGBE. The bow part is fairly simple. It follows alotof the bass but in the second octave on the sixth string (D)DDGBE. He plays alot on the 16,17, and 12th frets with the bow. As for the picked part he plays that on the first 3 strings DDD(GBE) heres a basic tab.

---14 14 14 14 14 14 14 14--15 15 15 15 15 15 15 15-
---x x x x x x x x --x x x x x x x x -
---11 11 11 11 11 11 11 11--12 12 12 12 12 12 12 12-
----------------------------------------------------
----------------------------------------------------
----------------------------------------------------

--9 9 9 9 9 9 9 9--7 7 7 7 7 7--9 9----
--x x x x x x x x--x x x x x x--x x----
--12 12 12 12 12 12 12 12-10 10 10 10 10 10-12 12---
----------------------------------------------------
----------------------------------------------------
----------------------------------------------------

but if you really want to pla it right without the help of another guitarist you can do the same tab but with a not added on the B string and the last two steps are diferent, it goes like...

---14 14 14 14 14 14 14 14--15 15 15 15 15 15 15 15-
---15 15 15 15 15 15 15 15--15 15 15 15 15 15 15 15-
---11 11 11 11 11 11 11 11--12 12 12 12 12 12 12 12-
----------------------------------------------------
----------------------------------------------------
----------------------------------------------------

This tab is good, it got me started...but its not all that right...well, just the guitar part. I actually tuned my guitar DDDGBE. The bow part is fairly simple. It follows alotof the bass but in the second octave on the sixth string (D)DDGBE. He plays alot on the 16,17, and 12th frets with the bow. As for the picked part he plays that on the first 3 strings DDD(GBE) heres a basic tab.

---14 14 14 14 14 14 14 14--15 15 15 15 15 15 15 15-
---x x x x x x x x --x x x x x x x x -
---11 11 11 11 11 11 11 11--12 12 12 12 12 12 12 12-
----------------------------------------------------
----------------------------------------------------
----------------------------------------------------

--9 9 9 9 9 9 9 9--7 7 7 7 7 7--9 9----
--x x x x x x x x--x x x x x x--x x----
--12 12 12 12 12 12 12 12-10 10 10 10 10 10-12 12---
----------------------------------------------------
----------------------------------------------------
----------------------------------------------------

but if you really want to pla it right without the help of another guitarist you can do the same tab but with a not added on the B string and the last two steps are diferent, it goes like...

---14 14 14 14 14 14 14 14--15 15 15 15 15 15 15 15-
---15 15 15 15 15 15 15 15--15 15 15 15 15 15 15 15-
---11 11 11 11 11 11 11 11--12 12 12 12 12 12 12 12-
----------------------------------------------------
----------------------------------------------------
----------------------------------------------------

This tab is good, it got me started...but its not all that right...well, just the guitar part. I actually tuned my guitar DDDGBE. The bow part is fairly simple. It follows alotof the bass but in the second octave on the sixth string (D)DDGBE. He plays alot on the 16,17, and 12th frets with the bow. As for the picked part he plays that on the first 3 strings DDD(GBE) heres a basic tab.

---14 14 14 14 14 14 14 14--15 15 15 15 15 15 15 15-
---x x x x x x x x --x x x x x x x x -
---11 11 11 11 11 11 11 11--12 12 12 12 12 12 12 12-
----------------------------------------------------
----------------------------------------------------
----------------------------------------------------

--9 9 9 9 9 9 9 9--7 7 7 7 7 7--9 9----
--x x x x x x x x--x x x x x x--x x----
--12 12 12 12 12 12 12 12-10 10 10 10 10 10-12 12---
----------------------------------------------------
----------------------------------------------------
----------------------------------------------------

but if you really want to pla it right without the help of another guitarist you can do the same tab but with a not added on the B string and the last two steps are diferent, it goes like...

---14 14 14 14 14 14 14 14--15 15 15 15 15 15 15 15-
---15 15 15 15 15 15 15 15--15 15 15 15 15 15 15 15-
---11 11 11 11 11 11 11 11--12 12 12 12 12 12 12 12-
----------------------------------------------------
----------------------------------------------------
----------------------------------------------------

---12 12 12 12 12 12 12 12--10 10 10 10 10 10 10 10-
---13 13 13 13 13 13 13 13--12 12 12 12 12 12 12 12-
---0 0 0 0 0 0 0 0 --0 0 0 0 0 0 0 0 -
---14 14 14 14 14 14 14 14--12 12 12 12 12 12 12 12-
----------------------------------------------------
----------------------------------------------------

but if you have two guitarist have one play the first tab I showed you and

0 reply
LaBum 10 Jul 22, 2007 05:41 PM

It doesn't sound quite right to me

I'm positive that the first part is like this
Eb|-------------------------------------------------------------------------|
Bb|-------------------------------------------------------------------------|
F|--------------------------------------------------------------------------|
C|7-/-2--/-4/0--------------------------------------------------------------|

-1 reply
AccidentsHappen 40 May 22, 2008 12:38 AM

to the person who made this tab: it sounds better played on the A string the way you tab it.

LaBum is right, it's 7 /2 /4/0.

guest
You may want to rate the tab now too:
select rating
Wanna post a correction for this tab? Suggest correction