Oops, an error
Loading. Please wait.

Gobbledigook Tab

version 1
version 1

Whole song

Interactive

16,333 views 9 this week
5 commentsread comments
1 2 3 4 5
accurate
x 6
add to favorites
launch autoscroll
font size
0
reset
how to read this tab
guitar tuner
Autoscroll
slow
fast
+/-
esc
set tempo
stop
Help us to improve Ultimate-Guitar.com Take our survey!
×
Author
Difficulty
intermediate
From the new album "Með suð í eyrum við spilum endalaust"

It sounds great to me

::::Intro

Guitar 1

e----------------| 
B----------------|
G-4---7---4---7--|
D-5---7---5---7--|
A-2---5---2---5--|
E----------------|

Guitar 2

e----------------| 
B----------------|
G---6-------4----|
D---7---7---5---7|
A---4---7---2---7|
E-------5-------5|

The 2 Guitars:

e------------------------------------------------| 
B------------------------------------------------|
G-4-6-7---4-6---5-6-7---4-6---5-6-7---4-6---5-6-7|
D-5-7-7-7-5-7-7-4-7-7-7-5-7-7-4-7-7-7-5-7-7-4-7-7|
A-2-4-5-7-2-4-7-2-4-5-7-2-4-7-2-4-5-7-2-4-7-2-4-5|
E-------5-----5-------5-----5-------5-----5------|

::::Verse x2

Guitar 1

e------------------| 
B-7-7-7-2-3-2-3-0-2|
G-7-6-7-2-4-2-4-0-2|
D-7-7-7-2-5-2-5-0-2|
A-5-4-5-0-2-0-2-2-0|
E---------------3--|

Guitar 2

e------------------| 
B------------------|
G-7-6-7---4-7-4----|
D-7-7-7-7-5-7-5-5-7|
A-5-4-5-7-2-7-2-5-7|
E-------5---5---3-5|

:::: 2nd Verse

Guitar 1

e------| 
B-2---3|
G-2---2|
D-x---0|
A-4---0|
E------|

Guitar 2

e------| 
B------|
G-6---7|
D-7---7|
A-4---5|
E------|

::::Bridge

The 2 Guitars:

e------------------------------------------------| 
B------------------------------------------------|
G-4-6-7---4-6---5-6-7---4-6---5-6-7---4-6---5-6-7|
D-5-7-7-7-5-7-7-4-7-7-7-5-7-7-4-7-7-7-5-7-7-4-7-7|
A-2-4-5-7-2-4-7-2-4-5-7-2-4-7-2-4-5-7-2-4-7-2-4-5|
E-------5-----5-------5-----5-------5-----5------|

::::Verse Again x2

:::**2nd Verse:

Guitar 1

e--------| 
B-2-----3|
G-2-----4|
D-x-----4|
A-4-----2|
E--------|

Guitar 2

e--------| 
B--------|
G-6-----4|
D-7-----4|
A-4-----2|
E--------|

::::Chorus (This part play it like you want to)

Guitar 1:

e---------| 
B-3---7-7-|
G-4---7-6-|
D-5---7-7-|
A-2---5-4-|
E---------|

Guitar 2:

e---------| 
B---------|
G-4---7-6-|
D-5---7-7-|
A-2---5-4-|
E---------|

AND THEEEN:

Guitar 1:

e------------------------------------------------| 
B-3-3-3-3-3-3-3-3-3-3-3-3-3-3-3-3-3-3-3-3-3-3-3-3|
G-4-2-2-2-4-2-2-4-2-2-2-4-2-2-4-2-2-2-4-2-2-4-2-2|
D-5-2-0-2-5-2-2-5-2-0-2-5-2-2-5-2-0-2-5-2-2-5-2-0|
A-2-4-0-0-2-4-0-2-4-0-0-2-4-0-2-4-0-0-2-4-0-2-4-0|
E------------------------------------------------|

Guitar 2:

e------------------------------------------------| 
B------------------------------------------------|
G-4-6-7---4-6---5-6-7---4-6---5-6-7---4-6---5-6-7|
D-5-7-7-7-5-7-7-4-7-7-7-5-7-7-4-7-7-7-5-7-7-4-7-7|
A-2-4-5-7-2-4-7-2-4-5-7-2-4-7-2-4-5-7-2-4-7-2-4-5|
E-------5-----5-------5-----5-------5-----5------|

:::Verse Again x2

::::**2nd Verse

:::: Chorus Played Faster

and finally!!!!!!!!!:

LA LA LA LA LA LA LA LA LA LA LA LA LA LA...

e---------------------------------------------------| 
B-3-3-3-3-3-3-3-3-3-3-3-3-3-3-3-3-3-3-3-3-3-3-3----3|
G-4-2-2-2-4-2-2-4-2-2-2-4-2-2-4-2-2-2-4-2-2-4-2-7--2|
D-5-2-0-2-5-2-2-5-2-0-2-5-2-2-5-2-0-2-5-2-2-5-2-7--0|
A-2-4-0-0-2-4-0-2-4-0-0-2-4-0-2-4-0-0-2-4-0-2-4-5--0|
E---------------------------------------------------|

e---------------------------------------------------| 
B--------------------------------------------------3|
G-4-6-7---4-6---5-6-7---4-6---5-6-7---4-6---5-6-7--2|
D-5-7-7-7-5-7-7-4-7-7-7-5-7-7-4-7-7-7-5-7-7-4-7-7--0|
A-2-4-5-7-2-4-7-2-4-5-7-2-4-7-2-4-5-7-2-4-7-2-4-5--0|
E-------5-----5-------5-----5-------5-----5---------|


so, that's it.
Suggest correction
What's this?
You can suggest a correction to this tab. Community and Mods will review your correction and vote to approve or reject it.
comments
print report bad tab
5 comments total. Showing first comments.
0 reply
omertoscar 538 wrote on June 9 2008, 06:37 pm

Great tab!! jonsi plays this song with an acoustic guitar with just 2 strings saw them playing it here in mexico june 5th =D

again great tab

0 reply
jowe189 45 wrote on June 11 2008, 12:29 am

it didnt sound right at all when i tried it...

0 reply
jowe189 45 wrote on June 28 2008, 12:10 am

ahh i now noticed that the first and second guitars alternate notes in the intro...

now seeing that, good tab.

guest
You may want to rate the tab now too:
select rating
Please do not post tabs as comments. Select "correction" instead!