Oops, an error
Loading. Please wait.

Hoppipolla Bass Tab

version 2
version 2

Whole song

Interactive

5,119 views 6 this week
no commentswrite comment
1 2 3 4 5
x 3
add to favorites
launch autoscroll
font size
0
reset
guitar tuner
Autoscroll
slow
fast
+/-
esc
set tempo
stop
Help us to improve Ultimate-Guitar.com Take our survey!
×
Author
Difficulty
novice
-----------------------------------------------------------------------------
                          Hoppipolla - Sigur Ros
-----------------------------------------------------------------------------

Tuning: EADG

Bass kicks in at 0.37

G|--------------------------------------------------------------------|
D|--------------------------------------------------------------------|
A|-2-2-2-2-2-2-2-2----------------------------------------------------|
E|------------------4-4-4-4-4-4-4-4--2-2-2-2-2-2-2-2--0-0-0-0-0-0-0-0-|

Break at 0.50

Resume at 0.56

G|--------------------------------------------------------------------|
D|--------------------------------------------------------------------|
A|-2-2-2-2-2-2-2-2----------------------------------------------------|
E|------------------4-4-4-4-4-4-4-4--2-2-2-2-2-2-2-2--0-0-0-0-0-0-0-0-|

G|----------------------------|
D|----------------------------|
A|-6-6-6-6-7-7-7-7------------|
E|-------------------0-0-0-0--|

G|-----------------------------------------------------------------|
D|-----------------------------------------------------------------|
A|-2-2-2-2-2-2-2-2-------------------------------------------------|
E|------------------4-4-4-4-4-4-4-4--2-2-2-2-2-2-2-2--0-0-0-0-0-0--|

Small pause at 1.28

Resume at 1.34

G|--------------------------------------------------------------------|
D|--------------------------------------------------------------------|
A|-2-2-2-2-2-2-2-2----------------------------------------------------|
E|------------------4-4-4-4-4-4-4-4--2-2-2-2-2-2-2-2--0-0-0-0-0-0-0-0-|

G|----------|-----|-----|-----|----------|-----|-----|-----|
D|----------|-----|-----|-----|----------|-----|-----|-----|
A|--2----/9-|-----|-----|--6--|--2----/9-|-----|-----|--6--|
E|----------|--2--|--0--|-----|----------|--2--|--0--|-----|

G|----------------------------------------------------|
D|----------------------------------------------------|
A|-6-6-6-6-7-7-7-7--7-7-7-7-6-6-6-6--7-7-7-7-7-7-7-6--|
E|----------------------------------------------------|

G|--------------------------------------------------------------------|
D|--------------------------------------------------------------------|
A|-2-2-2-2-2-2-2-2----------------------------------------------------| x2
E|------------------4-4-4-4-4-4-4-4--2-2-2-2-2-2-2-2--0-0-0-0-0-0-0-0-|

G|----------------------------------------------------|
D|----------------------------------------------------|
A|-6-6-6-6-7-7-7-7--7-7-7-7-6-6-6-6--7-7-7-7-7-7-7-6--|
E|----------------------------------------------------|

G|--------------------------------------------------------------------|
D|--------------------------------------------------------------------|
A|-2-2-2-2-2-2-2-2----------------------------------------------------| x4
E|------------------4-4-4-4-4-4-4-4--2-2-2-2-2-2-2-2--0-0-0-0-0-0-0-0-|

G|-----|
D|-----|
A|--2--|
E|-----|

| /  slide up
| \  slide down
| h  hammer-on
| p  pull-off
| ~  vibrato
| +  harmonic
| x  Mute note
===============================================================================
Suggest correction
Give kudos to tab author, rate the tab!
1 2 3 4 5
comments
print report bad tab
guest
You may want to rate the tab now too:
select rating
Wanna post a correction for this tab? Suggest correction