Oops, an error
Loading. Please wait.

Hoppipolla Tab

version 3
version 3

Interactive

5,490 views 18 this week
no commentswrite comment
1 2 3 4 5
accurate
x 1
add to favorites
launch autoscroll
font size
0
reset
how to read this tab
guitar tuner
Tab Pro tools
  • play this tab
  • loop segment
  • change instrument
  • show fretboard
  • metronome
×
Best way to learn
"Hoppipolla"
Autoscroll
slow
fast
+/-
esc
set tempo
stop
Normal tuning

piano intro
e-------------------------------------------------------------------|
B-------------------------------------------------------------------|
G------4-6-----4-6------4-6----4-6-----4-6----4-6------4-6-----4-6--|
D----4-------4--------4-------4-------4------4-------4-------4------|
A---6------6--------4-------4-------2------2-------4-------4--------|
E-------------------------------------------------------------------|

piano left hand;
e-------------------------------------------------------------|
B---------------4-------4---5-4----------4---5-4--------------|
G-----4-6-----4-------4---4-----4------4---4-----4-------4-6--|
D---4-------4-------4------------4---4-------------4---4------|
A -6------7-------7----------------7-----------------7--------|
E-------------------------------------------------------------|

e------------------------------------|
B---------------4--5-4---------------|
G-----4-6-----4--4-----4------4-6----|        And repeat
D---4-------4------------4---4-------|
A-4-------4----------------7---------|
E

piano right hand; same cycle an octave higher
e----------------------11--------11---12-11--------|
B-------12-14-------12---------12--12-------12-----|
G----11----------11----------11----------------11--|
D-13----------14-----------14----------------------|
A--------------------------------------------------|
E--------------------------------------------------|

e--------11--12-11--------------------------------11--12-11-------|
B-----12-12------12-----12-14----12-14---12--12-----12------------|
G---11--------------11--11--------11-------11---------------11----|
D-14------------------14---------11--------11---------------------|
------------------------------------------------------------------|
------------------------------------------------------------------|

e-----------------------|
B-------12-14-----------|
G----11-----------------|         And repeat
D-14--------------------|
------------------------|
------------------------|

the chorus is the intro with a little variants on the strumming.


The horns/strings at the end of the song are;
e(--9-11)  12-11-9----------9-11----------9-9h11-11-9-------9-11h12-12-12--|
B(12----)  -------12v---12------12v-----12------------12-12----------------|
G(------)  --------------------------11------------------------------------|
D
A
E

the first 3 notes () first time only

arnar.thorisson@hotmail.com
comments
We did not receive enough feedback on this tab! Please rate:
print report bad tab
1 2 3 4 5
I want to post or [tab]
guest
You may want to rate the tab now too:
select rating
Please do not post tabs as comments. Select "correction" instead!