Oops, an error
Loading. Please wait.

Hoppipolla Tab

version 5
version 5

Whole song

Interactive

852 views 3 this week
2 commentsread comments
1 2 3 4 5
x 4
add to favorites
launch autoscroll
font size
0
reset
how to read this tab
guitar tuner
×
Best way to learn
"Hoppipolla"
Autoscroll
slow
fast
+/-
esc
set tempo
stop
Author
Difficulty
  follow
intermediate
Submitted one on here before with the intro and main theme, but
here is the complete song. Hope it makes sense. 



Intro
e-------------------------------------------------0---0---|
B---1-3--1-3--1-3--1-3--1-3--1-3--1-3--1-3--1-3--1---1-1--|
G--0----0----0----0----0----0----0----0----0----0---0-----|
D-2----2----0----0--------------0----0----2----3---3------|
A---------------------3----3------------------------------|
E---------------------------------------------------------|

Main Theme
e-1p0-----0--1p0-----------------0-1p0-----0----|
B----1---1-1----1---1-3---1-3---1-1---1---1-1---|
G-----0-0--------0-0-----0-----0-------0-0------|    Play
D------3----------3-----3-----3---------3-------|    Twice
A-3----------0----------------------------------|
E-----------------------3-----3----1------------|

then

e---------0---0--|
B---1-3--1---1-1-|
G--0----0---0----|
D-2----3---3-----|
A----------------|
E----------------|

Verse

  C                 Am                G                 F
e-1-0-------------|---0-------------|-------0---0-----|--------------|
B-1-----3---1---1-|-3-----1---1---1-|-1-3---------3p1-|-1-3--1--1--1-|
G-0-----0---0---0-|-2-----2---2---2-|-0-----------0---|-0-0--0--0--0-|
D-2---2---2---2---|-2---2---2---2---|-0---0---0-------|--------------|
A-3---3---3---3---|-0---0---0---0---|-2---2---2---2---|--------------|
E-----------------|-----------------|-3---3---3---3---|-1---1--1--1--|

  Em          F
e-----------|-----------------|
B-1--3---1--|---1---1---1---1-|
G-0--0---0--|---0---0---0---0-|
D-2--2---2--|-----------------|
A-----------|-----------------|
E-0----0----|-1---1---1---1---|

  C                 Am                G                 F
e-------0---0-----|-----------------|-------0---0-----|-1----0-------|
B-1-3---------3p1-|-1-3---1---1---1-|-1-3---------3p1-|-1----------3-|
G-0---------------|-2-----2---2---2-|-0---------------|-2------------|
D-2---2---2---2---|-2---2---2---2---|-0---0---0-------|-3--------3---|
A-3---3---3---3---|-0---0---0---0---|-2---2---2---2---|-3------------|
E-----------------|-----------------|-3---3---3---3---|-1--1---1-----|

Bridge/Break 
  C                 G                 F              G
e-------------0---|-------3-----3---|-1----0-------|-------3-----3-|
B---------------3-|-------0-----0---|-1----------3-|-------0-----0-|
G-----0-----------|-----------------|-2------------|---------------|  Play
D---2---2---2-----|-----0-----------|-3--------3---|-----0---------|  Twice
A-3-------3-------|---2-------2-----|-3------------|---2-------2---|
E-----------------|-3-------3-----3-|-1--1---1-----|-3-------3-----|

then
        Em   F             Em   F
e-3-3-3-3-5--1-1111-|3-3-3-3-5--1-1111111--|
B-------0----1-1111-|------0----1-1111111--|
G-------0----2-2222-|------0----2-2222222--|
D-------2----3-3333-|------2----3-3333333--|
A-------2----3-3333-|------2----3-3333333--|
E-------0----1-1111-|------0----1-1111111--|



Suggest correction
comments
print report bad tab
2 comments total.
0 reply
helpweresunk 10 Aug 11, 2014 08:34 PM

Lack of accuracy.

0 reply
jamieneil 30 Jan 27, 2015 11:09 AM

This is an interpretation of the song designed for playing the main themes, with some harmonic accompaniment, in a position which also allows for the use of open chords in the correct progression. If you really want to cover this song accurately.....buy a piano!

guest
You may want to rate the tab now too:
select rating
Wanna post a correction for this tab? Suggest correction