Oops, an error
Loading. Please wait.

Hoppipolla Tab

version 5
version 5

Interactive

4,732 views 18 this week
no commentswrite comment
1 2 3 4 5
x 3
add to favorites
launch autoscroll
font size
0
reset
how to read this tab
guitar tuner
Autoscroll
slow
fast
+/-
esc
set tempo
stop
Help us to improve Ultimate-Guitar.com Take our survey!
×
Author
Admittedly this isn't in the original key, but sounds pretty good I think. If you wanna 
change key just whack a capo on it. Enjoy...

Intro
e-------------------------------------------------0---0---|
B---1-3--1-3--1-3--1-3--1-3--1-3--1-3--1-3--1-3--1---1-1--|
G--0----0----0----0----0----0----0----0----0----0---0-----|
D-2----2----0----0--------------0----0----2----3---3------|
A---------------------3----3------------------------------|
E---------------------------------------------------------|

Main Theme
e-1p0-----0--1p0-----------------0-1p0-----0----|
B----1---1-1----1---1-3---1-3---1-1---1---1-1---|
G-----0-0--------0-0-----0-----0-------0-0------| And
D------3----------3-----3-----3---------3-------|Repeat
A-3----------0----------------------------------|
E-----------------------3-----3----1------------|
Suggest correction
Give kudos to tab author, rate the tab!
1 2 3 4 5
comments
print report bad tab
guest
You may want to rate the tab now too:
select rating
Wanna post a correction for this tab? Suggest correction