Oops, an error
Loading. Please wait.

Illgresi Tab

version 2
version 2

Whole song

2,666 views 39 this week
no commentswrite comment
1 2 3 4 5
excellent!
x 4
add to favorites
launch autoscroll
font size
0
reset
how to read this tab
guitar tuner
Tab Pro tools
  • play this tab
  • loop segment
  • change instrument
  • show fretboard
  • metronome
Autoscroll
slow
fast
+/-
esc
set tempo
stop
Contributor
-------------------------------------------------------------------------------
                             Illgresi - Sigur Rós
-------------------------------------------------------------------------------

Tabbed by: Garrett May
E-mail: garrett.may130 at gmail

Tuning: 
  Guitar 1 - Standard EADGBe
  Guitar 2 - Standard, Capo on fret 2 over E-B strings (high e is open)


Couldn't find a complete tab for this beautiful song so I watched a live
performance and did the best I could. Please email if you think something
should be changed.

Video: http://www.spinner.com/interface/sigur-ros-illgresi-interface/

In the video, Jónsi plays Guitar 1 and Kjartan plays Guitar 2.
If you're watching Kjartan, just play 2 frets higher than whatever he plays.
I think his guitar is tuned a whole step up on the DGB strings.

Listen to the song for exact timing and tone. 



========== Guitar 1 (Jónsi) =======================


Intro + Verse

e|---------------------------------------------------------------------------|
B|---------------------------------------------------------------------------|
G|-0-------2-------4-------4-------4-------0-------5-------4-------2---------|
D|-----------0---0---0---0---0---0---0---0---0---0---0---0---0---0---0---0---|
A|-------------0-------0-------0-------0-------0-------0-------0-------0-----|
E|-0-------2-------3-------3-------3-------0-------5-------3-------2---------|

e|---------------------------------------------------------------------------|
B|---------------------------------------------------------------------------|
G|-2-------2-------7-------4-------2-------0-------0-------11------11------11|
D|---0---0---0---0---0---0---0---0---0---0---0---0---0---0---0---0---0---0---|
A|-----0-------0-------0-------0-------0-------0-------0-------0-------0-----|
E|-2-------2-------7-------3-------2-------0-------0-------10------10--------|


Chorus

e|---------------------------------------------------------------------------|
B|---------------------------------------------------------------------------|
G|-7-------7-------9-------9-------5-------5-------4-------4-------2---------|
D|---0---0---0---0---0---0---0---0---0---0---0---0---0---0---0---0---0---0---|
A|-----0-------0-------0-------0-------0-------0-------0-------0-------0-----|
E|-7-------7-------8-------8-------5-------5-------3-------3-------2---------|

e|----------------------------------------||---------------------------------|
B|----------------------------------------||o--------------------------------|
G|-2-------0-------0-------11------12-----||-9-------9-------9-------9---7---|
D|---0---0---0---0---0---0---0---0---0---0||---0---0---0---0---0---0---0---0-|
A|-----0-------0-------0-------0-------0--||o----0-------0-------0-----------|
E|-2-------0-------0-------10------12-----||-8-------8-------8-------8---7---|
                                           
e|---------------------------------------------------------||
B|--------------------------------------------------------o||
G|-----7-------7-------7---11------11------11------12------||
D|---0---0---0---0---0---0---0---0---0---0---0---0---0---0-||
A|-0-------0-------0-----------0-------0-------0-------0--o||
E|-----7-------7-------7---10------10------10------12------||
                                           ^^ stop here on 2nd time through

"Timinn lagar allt..."

e|---------------------------------------------------------------------------|
B|---------------------------------------------------------------------------|
G|-9-------11------12------12------0-------2-------4-------4-------5---------|
D|---0---0---0---0---0---0---0---0---0---0---0---0---0---0---0---0---0---0---|
A|-----0-------0-------0-------0-------0-------0-------0-------0-------0-----|
E|-8-------10------12------12------0-------2-------3-------3-------5---------|

e|---------------------------------------------------------------------------|
B|---------------------------------------------------------------------------|
G|-4-------2-------2-------4-------2-------0-------0-------11------11------11|
D|---0---0---0---0---0---0---0---0---0---0---0---0---0---0---0---0---0---0---|
A|-----0-------0-------0-------0-------0-------0-------0-------0-------0-----|
E|-3-------2-------2-------3-------2-------0-------0-------10------10--------|


                                                  
========== Guitar 2 (Kjartan) =====================

Either tune DGB up a whole step (could be bad for your guitar/strings), or
capo your 2nd fret leaving the high e string open.

e|--|--|--|--
B|--|CC|--|--
G|--|CC|--|--
D|--|CC|--|--      CC = capo 
A|--|CC|--|--
E|--|CC|--|--

!!!!! Notes below are written relative to capo (high e is always played open)

Verse

e|-----0-------0-------0-------0-------0-------0-------0-------0-------0-----|
B|-3-------3-------3-------5-------6-------6-------6-------3-------8---------|
G|---0---0---0---0---0---0---0---0---0---0---0---0---0---0---0---0---0---0---|
D|-3-----------------------5-------7-------7---------------3-------8---------|
A|---------------------------------------------------------------------------|
E|---------------------------------------------------------------------------|

e|-----0-------0-------0-------0-------0-------0-------0-------0-------0-----|
B|-6-------5-------5-------5-------1-------3-------5-------6-------6---------|
G|---0---0---0---0---0---0---0---0---0---0---0---0---0---0---0---0---0---0---|
D|-7-------5-------5---------------2-------3-------5-------7-------7---------|
A|---------------------------------------------------------------------------|
E|---------------------------------------------------------------------------|

e|-----0-------0-------------------------------------------------------------|
B|-5-------5-------5---------------------------------------------------------|
G|---0---0---0---0-----------------------------------------------------------|
D|-5-------------------------------------------------------------------------|
A|---------------------------------------------------------------------------|
E|---------------------------------------------------------------------------|


Chorus

e|-----0-------0-------0-------0-------0-------0-------0-------0-------0-----|
B|-1-------1-------3-------3-------8-------8-------6-------6-------5---------|
G|---0---0---0---0---0---0---0---0---0---0---0---0---0---0---0---0---0---0---|
D|-2-------2-------3-------3-------8-------8-------7-------7-------5---------|
A|---------------------------------------------------------------------------|
E|---------------------------------------------------------------------------|

e|-----0-------0-------0-------0-------0--||------0-------0-------0----------|
B|-5-------3-------3-------5-------6------||o-6-------6-------6-------6---5--|
G|---0---0---0---0---0---0---0---0---0---0||----0---0---0---0---0---0---0---0|
D|-5-------3-------3-------5-------7------||--8-------8-------8-------8---5--|
A|----------------------------------------||o--------------------------------|
E|----------------------------------------||---------------------------------|

e|-0-------0-------0-----------0-------0-------0-------0----||
B|-----5-------5-------5---8-------8-------8-------10------o||
G|---0---0---0---0---0---0---0---0---0---0---0---0---0---0--||
D|-----5-------5-------5---10------10------10------10-------||
A|---------------------------------------------------------o||
E|----------------------------------------------------------||
                                           ^^ stop here second time through


"Timinn lagar allt..."

e|-----0-------0-------0-------0-------0-------0-------0-------0-------0-----|
B|-3-------1-------3-------3-------3-------5-------6-------6-------8---------|
G|---0---0---0---0---0---0---0---0---0---0---0---0---0---0---0---0---0---0---|
D|-3-------2-------3-------3-------3-------5-------7-------7-------8---------|
A|---------------------------------------------------------------------------|
E|---------------------------------------------------------------------------|

e|-----0-------0-------0-------0-------0-------0-------0-------0-------0-----|
B|-6-------5-------5-------6-------5-------3-------3-------1-------1---------|
G|---0---0---0---0---0---0---0---0---0---0---0---0---0---0---0---0---0---0---|
D|-7-------5-------5-------7-------5-------3-------3-------2-------2---------|
A|---------------------------------------------------------------------------|
E|---------------------------------------------------------------------------|



Outro

e|-----0-------------------------0-------0---------------0-------0--------0--|
B|-3-------3-----------------5-------6-------6-------3-------8--------6------|
G|---0---0-------------0---0---0---0---0---0-----------0---0---0---0----0---0|
D|-3---------------------3---5-------7-------7-------3-------8--------7------|
A|---------------------------------------------------------------------------|
E|---------------------------------------------------------------------------|

e|-----0---------------0-------0-------0--------------0----------------------|
B|-5-------5-------6-------5-------3-------3------1-------1-------1----------|
G|---0---0-----------0---0---0---0---0---0----------0---0---0---0------------|
D|-5---------------7-------5-------3--------------2-----------2--------------|
A|---------------------------------------------------------------------------|
E|---------------------------------------------------------------------------|


Intro
Verse x 2
Chorus
Verse x 2
Chorus
"Timinn..." x 2
Outro

************************************

| /   slide up
| \   slide down
| h   hammer-on
| p   pull-off
| ~   vibrato
| +   harmonic
| x   Mute note
| b   Bend
| pb  Pre-bend
| br  Bend release
| pbr Pre-bend release
| brb Bend release bend

************************************
comments
print report bad tab
I want to post or [tab]
guest
You may want to rate the tab now too:
select rating
Please do not post tabs as comments. Select "correction" instead!