Oops, an error
Loading. Please wait.

Inn Mr Syngur Vitleysingur Bass Tab

7,698 views 1 this week
2 commentsread comments
1 2 3 4 5
excellent!
x 4
add to favorites
launch autoscroll
font size
0
reset
guitar tuner
Autoscroll
slow
fast
+/-
esc
set tempo
stop
Help us to improve Ultimate-Guitar.com Take our survey!
×
Author
Sigur Rós-Inní mér syngur vitleysingur
1st part    3x

G  -------------------------------------------------------------------------|
D  -------------------------------------------------------------------------|
A  --------------------------5555--77--33-----------------------------------|
E  -----------3333--2222----------------------------------------------------|


44 seconds

----------------------------------------------------------------------------|
----------------------------------------------------------------------------|
------333---2----5----------------------------------------------------------|
----------------------------------------------------------------------------|

2nd part:

----------------------------------------------------------------------------|
----------------------------------------------------------------------------|
-------------------------33—2-5---------------------------------------------|
-------3333----2222---------------------------------------------------------|

1st part 3x

again the 44 seconds part:
----------------------------------------------------------------------------|
----------------------------------------------------------------------------|
------333---2----5----------------------------------------------------------|
----------------------------------------------------------------------------|

2nd part  2x

4th part:

----------------------------------------------------------------------------|
----------------------------------------------------------------------------|
-10-10-10-10--9-9-9-9—7-7-7-7--5-5-5-5—-3-3-3-3--2-2-2-2--0-0-2-0-----------|
------------------------------------------------------------------3---------|

silence

5th part :  8x
----------------------------------------------------------------------------|
----------------------------------------------------------------------------|
--------------3333----7777---5555-------------------------------------------|
-----3333-------------------------------------------------------------------|
1st part. To end

This is only my first tabb I ever made, I have been playing bass for only a few months
I don't know if I got everything right, but most of it should be correct.
Suggest correction
What's this?
You can suggest a correction to this tab. Community and Mods will review your correction and vote to approve or reject it.
comments
print report bad tab
2 comments total.
+1 reply
dangreenhalgh 276 wrote on February 12 2009, 12:32 pm

Pretty damn good, although I think part 4 should be:

G---------|---------|---------|---------|---------|---------|---------|----|
D-5-5-5-5-|-4-4-4-4-|-2-2-2-2-|---------|---------|---------|---------|----|
A---------|---------|---------|-5-5-5-5-|-3-3-3-3-|-2-2-2-2-|-0-0-2-0-|----|
E---------|---------|---------|---------|---------|---------|---------|-3--|

basically a descending G major scale.

+1 reply
james rune 174 wrote on February 12 2009, 01:09 pm

Yeah part 4 is wrong, but I never made the time to adjust it.

I play it like this: (but it's the same as your correction actually)

G-------------------------------------------------------------------|
D-------------------------------------------------------------------|
A-10-10-10-10--9-9-9-9--7-7-7-7--5-5-5-5--3-3-3-3--2-2-2-2-0-0-2-0--|
E------------------------------------------------------------------3|

guest
You may want to rate the tab now too:
select rating
Please do not post tabs as comments. Select "correction" instead!