Oops, an error
Loading. Please wait.

Meo Bloonasir Bass Tab

3,549 views 1 this week
no commentswrite comment
1 2 3 4 5
x 4
add to favorites
launch autoscroll
font size
0
reset
guitar tuner
Autoscroll
slow
fast
+/-
esc
set tempo
stop
Help us to improve Ultimate-Guitar.com Take our survey!
×
Author
Difficulty
intermediate
Með Blóðnasir by Sigur Rós
Bass played by Georg Holm and Jón þor (Jónsi) Birgisson
Taken from the album Takk...
Tabbed by Laurent (laurent.morin@hotmail.com)

The studio version has only one bass, here listed as the Studio Version.
In the live version however, Jónsi also plays bass with Georg.
And in live concerts, the song is played one fret lower.
So I made 2 sections in this tab; the studio and the live versions.
Georg and Jonsi play with a pick.

Bass no1 - Studio Version

B : 14

Intro (0:16)
G|-------|
D|-------|
A|-2~----|
E|-------|

Part 1 (0:29)
G|-----------------------------------------------------------------|
D|-----------------------------------------------------------------|
A|-7-7-7-7/B-B-B-B-B\9-9-9-9-9-9-9-9\--------------2-2-2-2-2-2-2-2-|
E|-----------------------------------4-4-4-4-4-4-4-----------------|

Part 2 (0:42)
G|-----------------------------------------------------------------|
D|-----------------------------------------------------------------|
A|-7-7-7-7-7-7-7-7/9-9-9-9-9-9-9-9-9\--------------2-2-2-2-2-2-2-2-|
E|-----------------------------------4-4-4-4-4-4-4-----------------|

Part 1 (0:56)
Part 2 (1:10)

Part 3 (1:23)
G|-------------------------------------------------|
D|-------------------------------------------------|
A|-7-7-7-7-7-7-7-7-6-6-6-6-7-7-7-7-7-7-7-7-6-6-6-6-|
E|-------------------------------------------------|

Part 1 (1:34)
Part 2 (1:47)

Part 3 (Modified for ending - Fade in the last 6 notes) (2:01)
G|-------------------------------------|
D|-------------------------------------|
A|-7-7-7-7-7-7-7-7-6-6-6-6-7-7-7-7-7-7-|
E|-------------------------------------|


Bass no1 - Live

A : 13

Part 1 (0:29)
G|-----------------------------------------------------------------|
D|-----------------------------------------------------------------|
A|-6-6-6-6/A-A-A-A-A\8-8-8-8-8-8-8-8\--------------1-1-1-1-1-1-1-1-|
E|-----------------------------------3-3-3-3-3-3-3-----------------|

Part 2 (0:42)
G|-----------------------------------------------------------------|
D|-----------------------------------------------------------------|
A|-6-6-6-6-6-6-6-6/8-8-8-8-8-8-8-8-8\--------------1-1-1-1-1-1-1-1-|
E|-----------------------------------3-3-3-3-3-3-3-----------------|

Part 1 (0:56)
Part 2 (1:10)

Part 3 (1:23)
G|-------------------------------------------------|
D|-------------------------------------------------|
A|-6-6-6-6-6-6-6-6-5-5-5-5-6-6-6-6-6-6-6-6-5-5-5-5-|
E|-------------------------------------------------|

Part 1 (1:34)
Part 2 (1:47)
Part 3 (2:01)

Ending (2:11)
A|-6~-


Bass no2 - Live

F : 10
C : 10
D : 12

Part 1 (0:29 - Come in at 0:32)
G|---------------------------------------------------------------|
D|---------------1-3-3-3-3-3-7-7-7-7\5-5-5-5-5-5-5-8-8-8-8-C-C-C-|
A|---------------------------------------------------------------|
E|---------------------------------------------------------------|

Part 2 (0:42)
G|---------------------------------------------------------------|
D|-1-1-1-1-1-1-1-1-3-3-3-3-7-7-7-7-7\5-5-5-5-5-5-5-8-8-8-8-C-C-D-|
A|---------------------------------------------------------------|
E|---------------------------------------------------------------|

Part 2 (0:56)
Part 2 (1:10)

Part 3 (1:23)
G|--8-8-8-8-8-8-8-8-F-F-F-F-8-8-8-8-8-8-8-8-F-F-F-F-|
D|--------------------------------------------------|
A|--------------------------------------------------|
E|--------------------------------------------------|

Part 4 (1:34) (In some concerts, he plays part 2 instead)
G|-----------------------------------------------------------------|
D|-1-1-1-1-1-1-1-1-3-3-3-3-7-7-7-7-7\5-5-5-5-5-5-5-8-8-8-8-C-C-C-C-|
A|-----------------------------------------------------------------|
E|-----------------------------------------------------------------|

Part 2 (1:47)
Part 3 (2:01)

Ending (2:11)
A|-6~-

Key;
/  slide up
\  slide down
~ let ring

One of the best songs I heard from my favourite band. Hope you like it, I spent hours 
everything. It should be exactly how Georg and Jónsi play it. For the live versions, I 
the Jools Holland concert and the Heima version, which can be found on youtube.
Cheers
Suggest correction
comments
print report bad tab
guest
You may want to rate the tab now too:
select rating
Wanna post a correction for this tab? Suggest correction