Oops, an error
Loading. Please wait.

Njosnavelin Acoustic Tab

version 1
version 1

Intro

Whole song

6,674 views 39 this week
no commentswrite comment
1 2 3 4 5
excellent!
x 1
add to favorites
launch autoscroll
font size
0
reset
how to read this tab
guitar tuner
Tab Pro tools
  • play this tab
  • loop segment
  • change instrument
  • show fretboard
  • metronome
Autoscroll
slow
fast
+/-
esc
set tempo
stop
Difficulty
novice
-----------------------------------------------------------------------
Njosnavelin – Sigur Ros
-----------------------------------------------------------------------
Tabbed by: Araki

Tuning: Standard

Okay so the timing in the tabs are a bit tricky, especially when it switches to chords 
the end. So, I have a video of me playing these tabs on youtube. I think if you watch the 
it’ll be a lot easier to learn the song. Here’s the link to it:
http://www.youtube.com/watch?v=kajNOgZHZvc
Enjoy!

e|-------------------------------------------|
B|------1- 1---1-1----------1----------------|
G|----2----2---2-2----2---0----0--4--0----0--|
D|--3--------3------3---2---------------2----|
A|-------------------------------------------|
E|-------------------------------------------|

e|-------------------------------------------|
B|------1- 1---1-1----------1----------------|
G|----2----2---2-2----2---0----0--4--5-------|
D|--3--------3------3---2--------------------|
A|-------------------------------------------|
E|-------------------------------------------|

e|----------1-------0----------------|
B|------1-----0---0-------1---1------|
G|----2---2-----2-----------2--------|
D|--3--------------------------------|
A|-----------------------------------|
E|-----------------------------------|

e|-----------------------------------|
B|------1---0h1------3-----3---3-----|
G|----0---0--------0---------0-------|
D|--2------------2-------------------|
A|-----------------------------------|
E|-----------------------------------|

e|----------1-------0----------------|
B|------1-----0---0-------1---1------|
G|----2---2-----2-----------2--------|
D|--3--------------------------------|
A|-----------------------------------|
E|-----------------------------------|

e|-----------------------------------|
B|------1---0h1------3-----3---3-----|
G|----0---0--------0---------0-------|
D|--2------------2-------------------|
A|-----------------------------------|
E|-----------------------------------|

e|----------1-------0-----0-----0----|
B|------1-----0---0------------------|
G|----2---2-----2-------2-----2------|
D|--3-----------------3-----3--------|
A|-----------------------------------|
E|-----------------------------------|

e|-----------------------------------|
B|------1---0h1------3-----3-----3---|
G|----0---0--------0-----0-----0-----|
D|--2------------2-----2-----2-------|
A|-----------------------------------|
E|-----------------------------------|

e|----------1-------0----------------|
B|------1-----0---0-------1---1------|
G|----2---2-----2-----------2--------|
D|--3--------------------------------|
A|-----------------------------------|
E|-----------------------------------|

e|-----------------------------------|
B|------1---0h1------3-----3---3-----|
G|----0---0--------0---------0-------|
D|--2------------2-------------------|
A|-----------------------------------|
E|-----------------------------------|

e|-------------------------------------------|
B|------1- 1---1-1----------1----------------|
G|----2----2---2-2----2---0----0--4--0----0--|
D|--3--------3------3---2---------------2----|
A|-------------------------------------------|
E|-------------------------------------------|

e|-------------------------------------------|
B|------1- 1---1-1----------1----------------|
G|----2----2---2-2----2---0----0--4--5-------|
D|--3--------3------3---2--------------------|
A|-------------------------------------------|
E|-------------------------------------------|

e|--------------13----------12---------------|
B|--------10-------10----10-------10----10---|
G|-----10----10-------10-------------10------|
D|--10---------------------------------------|
A|-------------------------------------------|
E|-------------------------------------------|

e|-----------10-------8----------------------|
B|-------8------8---8------8---8-------------|
G|-----9---9------9----------9---------------|
D|--10---------------------------------------|
A|-------------------------------------------|
E|-------------------------------------------|

e|--------------13----------12---------------|
B|--------10-------10----10-------10----10---|
G|-----10----10-------10-------------10------|
D|--10---------------------------------------|
A|-------------------------------------------|
E|-------------------------------------------|

e|-----------10-------8----------------------|
B|-------8------8---8------8---8-------------|
G|-----9---9------9----------9---------------|
D|--10---------------------------------------|
A|-------------------------------------------|
E|-------------------------------------------|

e|--------------13----------12-------12-------12--|
B|--------10-------10----10----10-------10--------|
G|-----10----10-------10----------10-------10-----|
D|--10--------------------------------------------|
A|------------------------------------------------|
E|------------------------------------------------|

e|-----------10-------8-----8-----8----------|
B|-------8------8---8---8-----8--------------|
G|-----9---9------9-------9-----9------------|
D|--10---------------------------------------|
A|-------------------------------------------|
E|-------------------------------------------|

e|--------------13----------12---------------|
B|--------10-------10----10-------10----10---|
G|-----10----10-------10-------------10------|
D|--10---------------------------------------|
A|-------------------------------------------|
E|-------------------------------------------|

e|-----------10-------8----------------------|
B|-------8------8---8------8---8-------------|
G|-----9---9------9----------9---------------|
D|--10---------------------------------------|
A|-------------------------------------------|
E|-------------------------------------------|


e|-------------------------------------------|
B|------1- 1---1-1----------1----------------|
G|----2----2---2-2----2---0----0--4--0----0--|
D|--3--------3------3---2---------------2----|
A|-------------------------------------------|
E|-------------------------------------------|

e|-------------------------------------------|
B|------1- 1---1-1----------1----------------|
G|----2----2---2-2----2---0----0--4--5-------|
D|--3--------3------3---2--------------------|
A|-------------------------------------------|
E|-------------------------------------------|

*The Chord strum pattern is just up,down,up,down*

e|----------1--------0----0-0-0---------|
B|------1-----0---0--1----1-1-1---------|
G|----2---2-----2----2----2-2-2---------|
D|--3----------------3----3-3-3---------|
A|-------------------x----x-x-x---------|
E|-------------------x----x-x-x---------|

e|--0-0-0-0-0-0-0-0--0-0-0-0-0-0-0-0----|
B|--1-1-1-1-1-1-1-1--3-3-3-3-3-3-3-3----|
G|--0-0-0-0-0-0-0-0--0-0-0-0-0-0-0-0----|
D|--2-2-2-2-2-2-2-2--2-2-2-2-2-2-2-2----|
A|--x-x-x-x-x-x-x-x--x-x-x-x-x-x-x-x----|
E|--x-x-x-x-x-x-x-x--x-x-x-x-x-x-x-x----|

e|--0-0-0-0--1-1-1-1--0-0-0-0-0-0-0-0---|
B|--1-1-1-1--0-0-0-0--1-1-1-1-1-1-1-1---|
G|--2-2-2-2--2-2-2-2--2-2-2-2-2-2-2-2---|
D|--3-3-3-3--3-3-3-3--3-3-3-3-3-3-3-3---|
A|--x-x-x-x--x-x-x-x--x-x-x-x-x-x-x-x---|
E|--x-x-x-x--x-x-x-x--x-x-x-x-x-x-x-x---|

e|--0-0-0-0-0-0-0-0--0-0-0-0-0-0-0-0----|
B|--1-1-1-1-1-1-1-1--3-3-3-3-3-3-3-3----|
G|--0-0-0-0-0-0-0-0--0-0-0-0-0-0-0-0----|
D|--2-2-2-2-2-2-2-2--2-2-2-2-2-2-2-2----|
A|--x-x-x-x-x-x-x-x--x-x-x-x-x-x-x-x----|
E|--x-x-x-x-x-x-x-x--x-x-x-x-x-x-x-x----|

e|--0-0-0-0--1-1-1-1--0-0-0-0-0-0-0-0---|
B|--1-1-1-1--0-0-0-0--1-1-1-1-1-1-1-1---|
G|--2-2-2-2--2-2-2-2--2-2-2-2-2-2-2-2---|
D|--3-3-3-3--3-3-3-3--3-3-3-3-3-3-3-3---|
A|--x-x-x-x--x-x-x-x--x-x-x-x-x-x-x-x---|
E|--x-x-x-x--x-x-x-x--x-x-x-x-x-x-x-x---|

e|--0-0-0-0-0-0-0-0-0-0-0-0-0-0-0-------|
B|--1-1-1-1-1-1-1-1-3-3-3-3-3-3-3/5-----|
G|--0-0-0-0-0-0-0-0-0-0-0-0-0-0-0-------|
D|--2-2-2-2-2-2-2-2-2-2-2-2-2-2-2-------|
A|--x-x-x-x-x-x-x-x-x-x-x-x-x-x-x-------|
E|--x-x-x-x-x-x-x-x-x-x-x-x-x-x-x-------|


************************************

| /   slide up
| \   slide down
| h   hammer-on
| p   pull-off
| ~   vibrato
| +   harmonic
| x   Mute note
| b   Bend
| pb  Pre-bend
| br  Bend release
| pbr Pre-bend release
| brb Bend release bend

************************************
comments
We did not receive enough feedback on this tab! Please rate:
print report bad tab
1 2 3 4 5
I want to post or [tab]
guest
You may want to rate the tab now too:
select rating
Please do not post tabs as comments. Select "correction" instead!