Oops, an error
Loading. Please wait.

Ny Batteri Bass Tab

version 1
version 1

Whole song

1,498 views 3 this week
3 commentsread comments
1 2 3 4 5
2 more votes to show rating
add to favorites
launch autoscroll
font size
0
reset
guitar tuner
Autoscroll
slow
fast
+/-
esc
set tempo
stop
Help us to improve Ultimate-Guitar.com Take our survey!
×
Author
Difficulty
This is an update on the last tab which was incorrect in parts.

1:37
G|---7--7----7/h9-|---7--7----7/h9-|---7--7-------7-|---7--7-------7/|
D|--9--9----9----9|--9--9----9----9|--5--5-----0-5--|--5--5-----0-5--|
A|----------------|----------------|----------------|----------------|
E|----------------|----------------|----------------|----------------|

Repeat Until

5:01
G|--9~------------|----------------|----------------|----------------|
D|----------------|----------------|----------------|----------------|
A|----------------|----------------|----------------|----------------|
E|----------------|----------------|----------------|----------------|

5:15
G|---7--7----7/h9-|---7--7----7/h9-|---7--7-------7-|---7--7-------7/|
D|--9--9----9-----|--9--9----9-----|--5--5-----0-5--|--5--5-----0-5--|
A|----------------|----------------|----------------|----------------|
E|----------------|----------------|----------------|----------------|

Repeat Until

6:02
G|---7--7----7/h9-|---7--7----7/h9-|---7--7-------7-|---7-------7/---|
D|--9--9----9----9|--9--9----9----9|--5--5-----0-5--|--5-----0-5-----|
A|----------------|----------------|----------------|----------------|
E|----------------|----------------|----------------|----------------|

Repeat Until

7:00

G|--9~------------|----------------|----------------|----------------|
D|----------------|----------------|----------------|----------------|
A|----------------|----------------|----------------|----------------|
E|----------------|----------------|----------------|----------------|




Suggest correction
Give kudos to tab author, rate the tab!
1 2 3 4 5
comments
print report bad tab
3 comments total.
0 reply
thegingerjesus 31 Dec 01, 2006 09:09 PM

totally miss typed that!!!

G|---11-11---9/h11|---11-11---9/h11|---7--7-------7-|---7--7-------7/|
D|--9--9----9----9|--9--9----9----9|--5--5-----0-5--|--5--5-----0-5--|
A|----------------|----------------|----------------|----------------|
E|----------------|----------------|----------------|----------------|

0 reply
thegingerjesus 31 Dec 01, 2006 09:11 PM

just change all E's to F#'s and D's to E's

0 reply
Hound_Of_Winter 150 Jun 05, 2007 07:26 AM

1st part of the riff is wrong, second half of it is mostly right. it's:

Bm x2 G x2
G|---11---11~-----9h11---:|---7---7-------7-:|
D|-9----9~------9------9-:|-5---5-----0-5---:|

guest
You may want to rate the tab now too:
select rating
Wanna post a correction for this tab? Suggest correction