Oops, an error
Loading. Please wait.

Ny Batteri Bass Tab

version 2
version 2

Whole song

4,547 views 1 this week
1 commentread comment
1 2 3 4 5
1 last vote to show rating
add to favorites
launch autoscroll
font size
0
reset
guitar tuner
Autoscroll
slow
fast
+/-
esc
set tempo
stop
Help us to improve Ultimate-Guitar.com Take our survey!
×
Author
Artist: Sigur Rós
Song: Ný Batterí
Album: Ágætis Byrjun

It's a pretty simple song, but some people seemed to have been tabbing it an
octave lower, so here's my interpretation of the studio version.


G|--------11--------11---------11---9h11-------------11-------11--------11---9h11---------------|
D|-----9---------9--------------------------------9--------9------------------------------------|
A|----------------------------------------------------------------------------------------------|
E|----------------------------------------------------------------------------------------------|

G|--------7---------7---------7-------7----------------7--------7--------7------7---------------|
D|-----5---------5----------------------------------5--------5----------------------------------|
A|--------------------------------7------------------------------------------7------------------|
E|----------------------------------------------------------------------------------------------|
Suggest correction
Give kudos to tab author, rate the tab!
1 2 3 4 5
comments
print report bad tab
1 comment total.
0 reply
-tempest- 62 Jul 29, 2013 05:48 PM

its perfect

guest
You may want to rate the tab now too:
select rating
Wanna post a correction for this tab? Suggest correction