Oops, an error
Loading. Please wait.

Olsen Olsen Bass Tab

version 1
version 1

Whole song

8,816 views 24 this week
no commentswrite comment
1 2 3 4 5
accurate
x 6
add to favorites
launch autoscroll
font size
0
reset
guitar tuner
Autoscroll
slow
fast
+/-
esc
set tempo
stop
Help us to improve Ultimate-Guitar.com Take our survey!
×
Author
-------------------------------------------------------------------------------
			 OLSEN OLSEN - Sigur Rós
-------------------------------------------------------------------------------
Tabbed by: Ben Aitken
Email: ben.j.aitken@gmail.com

Bass Tuning: Standard

|/ slide up
|\ slide down

-|---------------------------------------------------------------------------|
-|-----7-----7-----7-----7-----7-----7-----5-----5-----5-----5-----5-----5---|
-|--5-----5-----5-----5-----5-----5-----7-----7-----7-----7-----7-----7------|
-|---------------------------------------------------------------------------|
  Intro/Verse

-|-----------------------------------------------------------|
-|-------------------------7-----7-----7-----7-----7-----7---|
-|--10----10--12----12--5-----5-----5-----5-----5-----5------|
-|-----------------------------------------------------------|
  Chorus 1 1/2x

-|-----------------------------------------------------------------|
-|-----------------------------------------------------------------|
-|-----------------------------------------------------------------|
-|--10----10----10\--5----5----5/--10----10----10\--5----5----5/---|
  Post-chorus

===============================================================================
Suggest correction
comments
print report bad tab
guest
You may want to rate the tab now too:
select rating
Wanna post a correction for this tab? Suggest correction