Oops, an error
Loading. Please wait.

Samskeyti Tab

version 1
version 1

Whole song

  • This version includes the link to the this version... Show more
7,678 views 3 this week
1 commentread comment
1 2 3 4 5
x 3
add to favorites
launch autoscroll
font size
0
reset
how to read this tab
guitar tuner
Autoscroll
slow
fast
+/-
esc
set tempo
stop
Help us to improve Ultimate-Guitar.com Take our survey!
×
Author
In fact it's more kind of a bass tab. Sounds like this:

e || -----------------------------------------------------||
B || -----------------------------------------------------||
G || ----8---10--12---------------------------------------||
D || -----------------12---10-----------------------------||
A || ----6---8---10---------------------------------------||
E || -----------------10---8------------------------------||

The chords are:

Eb  Fm  Gm  Dm  Cm   but it doesn't sound this way. It's just completing the bass notes.

If you want to play a solo, play it in Eb major or C minor.

Tablature:

e || -----------------------------------------------------------||
B || -----------------------------------------------------------||
G || -----------------------------------------------------------||
D || --12-13-12------12-13-12------12-13-12------12-13-12--15---||
A || ----------13--13--------13--13--------13--13--------13--13-||
E || ------------15------------15------------13-----------------||

The bass notes (G and F) change sometimes, even with an Ab-note, which is normally not 
in the Eb major or C minor scale. At a certain moment, everything is played an octave higher.

Greets
Suggest correction
Give kudos to tab author, rate the tab!
1 2 3 4 5
comments
print report bad tab
1 comment total.
0 reply
justinverted 10 May 19, 2012 11:45 PM

This is incorrect except for the Eb. The progression is as follows: Eb, Gm, Cm, G#, A#.

guest
You may want to rate the tab now too:
select rating
Wanna post a correction for this tab? Suggest correction