Oops, an error
Loading. Please wait.

Untitled 1 - Vaka Bass Tab

version 1
version 1

Whole song

Interactive

1,548 views 6 this week
no commentswrite comment
1 2 3 4 5
please rate
add to favorites
launch autoscroll
font size
0
reset
guitar tuner
Autoscroll
slow
fast
+/-
esc
set tempo
stop
Help us to improve Ultimate-Guitar.com Take our survey!
×
Author
Difficulty
Sigur Rós - Untitled #1 (a.k.a. "Vaka")

  "Verse/Chorus"(at 1:26 when the violins enter.)
G|------------------------------------------|
D|----------------3~~~~~~~5~~~~~~~-6~~~~~~~-|
A|4~~~~~~~1~~~~~~~--------------------------| x7
E|------------------------------------------|

   8th measure; varient (at 3:05)
G|-------------------------------------------|    Slide down right
D|-------------------------------------------|    before the violins
A|4~~~~~~~6~~~~~~~8~~~~~~~10~~~~~~~11~~~~~~~\| <- stop.
E|-------------------------------------------|

  (at 3:20 when the violins stop.)
G|------------------------------------------|
D|----------------3~~~~~~~5~~~~~~~-6~~~~~~~-|
A|4~~~~~~~1~~~~~~~--------------------------| x4
E|------------------------------------------|

   5th measure; varient (at 4:16)
G|-------------------------------------------|    Slide down right
D|-------------------------------------------|    before the "quiet"
A|4~~~~~~~6~~~~~~~8~~~~~~~10~~~~~~~11~~~~~~~\| <- part begins at 4:30
E|-------------------------------------------|

  (at 4:30 when the violins stop again.)
There is no bass during this part, but it goes along very nicely anyway.
G|----------------------------------------------------------------|
D|----------------------------------------------------------------|
A|--------3~~~~~~~1~~~~~~~--------4~~~~~~~3~~~~~~~1~~~~~~~--------| 
E|4~~~~~~~----------------4~~~~~~~------------------------4~~~~~~~|

  "Outro" (at 4:51)
G|--------------------------------|
D|----------------3~~~~~~~1~~~~~~~|
A|4~~~~~~~3~~~~~~~----------------| x4
E|--------------------------------|

End
Suggest correction
What's this?
You can suggest a correction to this tab. Community and Mods will review your correction and vote to approve or reject it.
comments
We did not receive enough feedback on this tab! Please rate:
print report bad tab
1 2 3 4 5
guest
You may want to rate the tab now too:
select rating
Please do not post tabs as comments. Select "correction" instead!