Oops, an error
Loading. Please wait.

Untitled 8 Popplagio Bass Tab

version 1
version 1

Whole song

Interactive

1,677 views 4 this week
no commentswrite comment
1 2 3 4 5
please rate
add to favorites
launch autoscroll
font size
0
reset
guitar tuner
Tab Pro tools
  • play this tab
  • loop segment
  • change instrument
  • show fretboard
  • metronome
×
Best way to learn
"Untitled 8 Popplagio"
Autoscroll
slow
fast
+/-
esc
set tempo
stop
Contributor
Difficulty
novice
This is the bass tab for Sigur Rós' Untitled #8 [Popplagið],
the last song of ( ).

Intro
Bass starts at 0.42
G|--------------------------|
D|--------------------------|
A|------------------/9-10---|
E|--------------------------|

Listen to the song for timing. It's very easy.

G|---------------------------------|
D|---------------------------------|
A|--7-7-7--7-7-7--7-7-7--/10-9-----|
E|---------------------------------|
				     x5
G|---------------------------------|
D|---------------------------------|
A|--5-5-5--5-5-5--5-5-5--/9-10-----|
E|---------------------------------|


Verse 1

G|---------------------------------|
D|---------------------------------|
A|--7-7-7--7-7----7-7-7--/10-9-----|
E|---------------------------------|
				     x4
G|---------------------------------|
D|---------------------------------|
A|--5-5-5--5-5----5-5-5--/9-10-----|
E|---------------------------------|


G|---------------------------------|
D|---------------------------------|
A|--3-3-3--3-3----3-3-3--3-3-------|
E|---------------------------------|
				     x2
G|---------------------------------|
D|---------------------------------|
A|--2-2-2--2-2----2-2-2--2-2-------|
E|---------------------------------|


G|---------------------------------|
D|---------------------------------|
A|-----------------------3-2-------|
E|--5-5-5--5-5----5-5-5------------|


Chorus 1

G|--------------------------------------|
D|--------------------------------------|
A|--------------3-3-3--3-3--3-3-3--3-3--|
E|--3-3-3--3-3--------------------------|

G|---------------------------------------------------|
D|---------------------------------------------------|
A|--5-5-5--5--5-5-5--5--7-7-7--7-7--3-3-3--3-3--3-3-3|
E|---------------------------------------------------|

G|---------------------------------|
D|---------------------------------|
A|--5-5-5--5-5--5-5-5--/9-10-------|
E|---------------------------------|


Post Chorus

G|---------------------------------|
D|---------------------------------|
A|--7-7-7--7-7-7--7-7-7--/10-9-----|
E|---------------------------------|
				     x2
G|---------------------------------|
D|---------------------------------|
A|--5-5-5--5-5-5--5-5-5--/9-10-----|
E|---------------------------------|


Verse 2

G|---------------------------------|
D|---------------------------------|
A|--7-7-7--7-7----7-7-7--/10-9-----|
E|---------------------------------|
				     x4
G|---------------------------------|
D|---------------------------------|
A|--5-5-5--5-5----5-5-5--/9-10-----|
E|---------------------------------|


G|---------------------------------|
D|---------------------------------|
A|--3-3-3--3-3----3-3-3--3-3-------|
E|---------------------------------|
				     x2
G|---------------------------------|
D|---------------------------------|
A|--2-2-2--2-2----2-2-2--2-2-------|
E|---------------------------------|


G|---------------------------------|
D|---------------------------------|
A|---------------------------------|
E|--5-5-5--5-5----5-5-5--5-5-------|


Chorus 2

G|--------------------------------------|
D|--------------------------------------|
A|--------------3-3-3--3-3--3-3-3--3-3--|
E|--3-3-3--3-3--------------------------|

G|---------------------------------------------------|
D|---------------------------------------------------|
A|--5-5-5--5--5-5-5--5--7-7-7--7-7--3-3-3--3-3--3-3-3|
E|---------------------------------------------------|

G|--------------------------------------------------------|
D|--------------------------------------------------------|
A|--5-5-5--5-5--5-5-5--5-5--3-3-3--3-3--3-3-3--3----------|
E|------------------------------------------------0-------|


(6.05) Here the climax starts. From now on I recommend to use a pick.

Bass actually starts at 7.13, 
but you can play this along with Kjartan's guitar, from 6.43.

G|--9999-99999-999999999-99999-99999----|
D|--------------------------------------|
A|--------------------------------------| x6
E|--------------------------------------|

until then. At 7.13, play this:

G|--------------------------------------|
D|--------------------------------------|
A|--7777-77777-777777777-77777-77777----| x4
E|--------------------------------------|


Then, at 7.37, the second part of the climax starts.

You can play this part in three different ways. 
I think that in the cd it's played in the first way (the one below). 
The second way consists in playing the first one octave higher.
The third way consists in playing the first and the second together.
Listen to the song for the accents.

G|----------------------------------------------|
D|---------------------55555555-55555555--------|
A|--77777777-77777777---------------------------|
E|----------------------------------------------|

G|----------------------------------------------|
D|----------------------------------------------|
A|--99999999-99999999--77777799-77779979--------|
E|----------------------------------------------|


G|----------------------------------------------|
D|--55555555-55555555--55555555-55555555--------|
A|----------------------------------------------|
E|----------------------------------------------|
 						  x8
G|----------------------------------------------|
D|----------------------------------------------|
A|--99999999-99999999--77777799-77779979--------|
E|----------------------------------------------|


(9.26) This is the third part of the climax. (Bass chords)
Listen to the song for the accents.

G|--9-9-9-9-9-9-9-9--9-9-9-9-9-9-9-9--------|
D|--9-9-9-9-9-9-9-9--9-9-9-9-9-9-9-9--------|
A|--7-7-7-7-7-7-7-7--7-7-7-7-7-7-7-7--------| x4
E|--0-0-0-0-0-0-0-0--0-0-0-0-0-0-0-0--------|


G|----------------------------------------------|
D|----------------------------------------------|
A|--77777777-77777777--77777777-77777777--------| x3
E|----------------------------------------------|


(10.08) Last part of the climax.

G|--9-9-9-9-9-9-9-9--9-9-9-9-9-9-9-9--------|
D|--9-9-9-9-9-9-9-9--9-9-9-9-9-9-9-9--------|
A|--7-7-7-7-7-7-7-7--7-7-7-7-7-7-7-7--------|
E|--0-0-0-0-0-0-0-0--0-0-0-0-0-0-0-0--------|
					      X3
G|--7-7-7-7-7-7-7-7--5-5-5-5-5-5-5-5--------|
D|--7-7-7-7-7-7-7-7--5-5-5-5-5-5-5-5--------|
A|--5-5-5-5-5-5-5-5--3-3-3-3-3-3-3-3--------|
E|------------------------------------------|


G|--9-9-9-9-9-9-9-9--9-9-9-9-9-9-9-9--------|
D|--9-9-9-9-9-9-9-9--9-9-9-9-9-9-9-9--------|
A|--7-7-7-7-7-7-7-7--7-7-7-7-7-7-7-7--------| X2
E|--0-0-0------------0-0-0------------------|


G|--9-9-9-9-9-9-9-9--9-9-9-9-9-9-9-9--------|
D|--9-9-9-9-9-9-9-9--9-9-9-9-9-9-9-9--------|
A|--7-7-7-7-7-7-7-7--7-7-7-7-7-7-7-7--------|
E|--0-0-0-0-0-0-0-0--0-0-0-0-0-0-0-0--------|
					      X2
G|--7-7-7-7-7-7-7-7--5-5-5-5-5-5-5-5--------|
D|--7-7-7-7-7-7-7-7--5-5-5-5-5-5-5-5--------|
A|--5-5-5-5-5-5-5-5--3-3-3-3-3-3-3-3--------|
E|------------------------------------------|


(11.23) Ending 

G|--9--------|
D|--9--------|
A|--7--------|
E|--0--------|

Contact me if I made any mistake.
Have fun playing this fantastic song! 
(Luke)
comments
We did not receive enough feedback on this tab! Please rate:
print report bad tab
1 2 3 4 5
I want to post or [tab]
guest
You may want to rate the tab now too:
select rating
Please do not post tabs as comments. Select "correction" instead!