Oops, an error
Loading. Please wait.

Vi Spilum Endalaust Bass Tab

4,968 views 3 this week
1 commentread comment
1 2 3 4 5
accurate
x 3
add to favorites
launch autoscroll
font size
0
reset
guitar tuner
Autoscroll
slow
fast
+/-
esc
set tempo
stop
Help us to improve Ultimate-Guitar.com Take our survey!
×
Another catchy bass line from Með suð í eyrum við spilum endalaust, and one that is very
to play.

Riff 1

G-(5)------|---------|---------|---------|  The note in brackets is only
D----------|---------|-2-2-2-2-|-3-3-3-3-|  played when Riff 3 is played
A--3-3-3-3-|-5-5-5-5-|---------|---------|  just before Riff 1
E----------|---------|---------|---------|

Riff 2

G---------|---------|---------|---------|
D-3-3-3-3-|-5-5-5-5-|-2-2-2-2-|-3-3-3-3-|
A---------|---------|---------|---------|
E---------|---------|---------|---------|

Riff 3

G-(5)------|---------|---------|---------|---------|-2-2-2-2-|-4-4-4-4-|
D----------|---------|-2-2-2-2-|-3-3-3-3-|-5-5-5-5-|---------|---------|
A--3-3-3-3-|-5-5-5-5-|---------|---------|---------|---------|---------|
E----------|---------|---------|---------|---------|---------|---------|

The note in brackets [G-(5)-] is only played when Riff 3 is repeated.

Last Note

G--5------|
D---------|
A-(3)-----| Not sure if this bracketed note is there or not, but what the
E---------| hell why not have it there for a bassier sound?


__Order__

Wait... until 0:06, then

Riff 1 x 4
Riff 2 x 2
Riff 1 x 3
Riff 2 x 2
Riff 3 x 1
Riff 1 x 3
Riff 2 x 3
Riff 3 x 2
Last Note
Suggest correction
Give kudos to tab author, rate the tab!
1 2 3 4 5
comments
print report bad tab
1 comment total.
0 reply
LaurentMontreal 406 wrote on May 31 2009, 12:53 pm

Good tab! Here are a few corrections. With those, it should be perfect.

Riff 2
G---------|---------|---------|---------|
D-3-3-3-3-|-5-5-5-5-|-2-2-2-2-|---------|
A---------|---------|---------|-0-0-0-0-|
E---------|---------|---------|---------|

And at 1:28 and 2:30, there is a variation of this same riff;

Riff 2 (Variation)
G---------|---------|---------|-2-2-2-2-|
D-3-3-3-3-|-5-5-5-5-|-2-2-2-2-|---------|
A---------|---------|---------|---------|
E---------|---------|---------|---------|

Finally, the first riff should be played only on the A string, hence the sliding sound when Georg starts the riff again.

Great job, once again. Oh, and you got the finale note right on.

guest
You may want to rate the tab now too:
select rating
Wanna post a correction for this tab? Suggest correction