Oops, an error
Loading. Please wait.

Vidrar Vel Til Loftarasa Tab

4,954 views 21 this week
2 commentsread comments
1 2 3 4 5
x 5
add to favorites
launch autoscroll
font size
0
reset
how to read this tab
guitar tuner
Autoscroll
slow
fast
+/-
esc
set tempo
stop
Help us to improve Ultimate-Guitar.com Take our survey!
×
Author
Sigur Rós
Viðrar Vel Til Loftárása


Tabbed by: Arnarswe
E-mail: arnarthorisson@hotmail.com

Tuning: Normal

Part 1/intro

e|----------0--------0------------------------------------------------------|
B|--------0--------0-----3----3------3-2------3-----3-----2---2-----2-------|
G|-4----4----------------4------4--------2----4-----4-----2-------2---------|
D|-2-----------------------4------4--------4----------------2---2-----------|
A|-----------------------2-------------2------2--2-----2--0-----------------|
E|----0--------0------------------------------------------------------------|

e|--------------------------0-------------------|
B|-2h3-----3p2----------------0-----------------|
G|-----2-------2--0h1---1h2-----1-------1----2--|
D|-------2------------2-----------2-----2----2--| and repeat
A|-0--------------------------------------------|
E|----------------0------------------0----------|

Part 1b

e|----------0-------0-2-4-5------5-------------------------------------|
B|--------0-------0----------3-----3-2------2h3-----3----2----2------2-|
G|-4---4---------------------4---------4--------4---4----2----2----2---|
D|-2--------------------------------------------------------2----2-----|
A|------------------------2----2-----2---2--2-----2---2--0-------------|
E|---0---------0-------------------------------------------------------|

e|---------------------------0--------------0-----|
B|-2h3-----3p2-----------------0---------------0--|
G|-----2-------2--0h1---1h2------1----------------|
D|-------2------------2------------2--------------|
A|-0----------------------------------------------|
E|----------------0------------------0------------|

Part 2

e|----------------------------------------0-----------0---------------------|
B|-----------------0-h2--2----2---0---------0------------3-------3-------3--|
G|-6---7-6s down---2--2--2------2---0---------2------------4-------4-----4--|
D|----------------------------------------------2---------------------------|
A|-4---5-4s down---0--0--0--0-----------------------------------------------|
E|--------------------------------2---2-----------2------3----3-------3----3|

e|--------------------------------------------------------------------|
B|-2------3-------3-------2-------2-------2-------3-------3-------3---|
G|---2-------4----4----------2------2-------2-------4--------4----4---|
D|--------------------------------------------------------------------|
A|--------------------------------------------------------------------|
E|-3---3--3----3----3-----2----2-------2----------3----3-------3----3-|

                                        
e|-------------------------------------------------------------------------|
B|-2------3-------3------5------5---------5---7---------7--7-----7-----7---|
G|---2-------4----4--------6------6----6----*------7---------7-----7-----7-|
D|---------------------------7------7-------*----7---7---------7-----7-----|
A|---------------------------------------------------------5---------------|
E|-3---3--3----3-----3---5------5-------------7----------------------------|

                                    
e|-3------3------3-----2------2-------2--------------------------|
B|---3------3------3-----2------2-------2---2------2h3-----3p2---|
G|-----4------4------------2------2-------*-2----2-----2-------2-|
D|----------------------------------------*---2----------2-------|
A|------------------------------------------0--------------------|
E|-3------3------3-----2------2-------2--------------------------|


e|------------0-----------------------|
B|--------------0---------------------|
G|-0h1---1h2------1---------1------2--|
D|-----2------------2-------2------2--|
A|------------------------------------|
E|-0-------------------0--------------|



In part 2 when Jonsi is singing play the part between the ** a total of 3 times.

************************************

| /   slide up
| \   slide down
| h   hammer-on
| p   pull-off
| ~   vibrato
| +   harmonic
| x   Mute note
| b   Bend
| pb  Pre-bend
| br  Bend release
| pbr Pre-bend release
| brb Bend release bend
Suggest correction
comments
print report bad tab
2 comments total.
0 reply
arnarswe 30 Aug 06, 2012 02:35 PM

Posted a video on youtube on how to play this

0 reply
FinderofNemo 337 May 08, 2015 02:33 AM

Great tab. Bit confused at first though since I didn't realize this was for the piano part

guest
You may want to rate the tab now too:
select rating
Wanna post a correction for this tab? Suggest correction