Oops, an error
Loading. Please wait.

Golden Cufflinks tab

by SikTh
91 views 15 this week
no commentswrite comment
1 2 3 4 5
2 more votes to show rating
add to favorites
×
Save as Personal and add changes to this tab that will be seen only by you. Learn more ›
×
You can save this tab as Personal to edit and correct it or add notes. All changes will be seen only by you. Learn more »
launch autoscroll
font size
0
reset
how to read this tab
guitar tuner
edit
Autoscroll
slow
fast
+/-
esc
set tempo
stop
About this tab version
Only missing the Bridge Part 3 rhythm which is B5, C#5, Eb5, Gb5 in the low Ab. I left it out to make it easier to play along to the tab in one guitar. Was this info helpful? Yes No
SikTh - Golden Cufflinks
Tuning - 7 String Drop Ab (Ab Eb Ab Db Gb Bb Eb)

Ultimate Guitar, please add Drop Ab to the tunings list!


[Intro]
Eb|--------------|
Bb|--------------|
Gb|--------------|
Db|--------------|
Ab|-5---------2--|
Eb|-5---------2--|
Ab|-5----0----2--|


[Verse]
Eb|-----------------------------|-------------------------------------|  |
Bb|-----------------------------|-------------------------------------|  |
Gb|-------4-----4-----4---4-4---|-4-4---4-4-------4-----4-----4-------|  |
Db|-------4-----4-----4---4-4---|-4-4---4-4-------4-----4-----4-------|  |
Ab|-2---------------------------|-------------------------------------|  |
Eb|-2---------------------------|-------------------------------------|  |
Ab|-2-2-2---2-2---2-2---2-----2-|-----2-----2-2-2---2-2---2-2---0-----|  |
      . .   . .   . .   .     .       .     . . .   . .   . .            |
                                                                         | x2
Eb|-------------------------|--------------------------------|           |
Bb|-------------------------|--------------------------------|           |
Gb|-----4-----4-------4-4---|-4-4---4-4-----4----------------|           |
Db|-----4-----4-------4-4---|-4-4---4-4-----4----------------|           |
Ab|-------------------------|--------------------------------|           |
Eb|-------------------------|--------------------------------|           |
Ab|-2-2---2-2---2-2-2-----2-|-----2-----2-2---2-2-0----2--5--|           |
    . .   . .   . . .     .       .     . .   . .


[Chorus]
Eb|---------------------------------------------2------------|
Bb|------------------------------------------2-----2--3~-----|
Gb|-----------------------------4----------------------------|
Db|-5----5-------2--------------4----------------------------|  x3
Ab|-5----5-------2---------2---------------------------------|
Eb|-3----3----2--0---------2---------------------------------|
Ab|-------------------0----2---------------------------------|

Eb|-------------------------------|
Bb|-------------------------------|
Gb|-------------------------------|
Db|-5----5-------2----------------|
Ab|-5----5-------2-------------2--|
Eb|-3----3----2--0-------------2--|
Ab|-------------------0-----0--2--|


[Verse]
Eb|-----------------------------|-------------------------------------|  |
Bb|-----------------------------|-------------------------------------|  |
Gb|-------4-----4-----4---4-4---|-4-4---4-4-------4-----4-----4-------|  |
Db|-------4-----4-----4---4-4---|-4-4---4-4-------4-----4-----4-------|  |
Ab|-2---------------------------|-------------------------------------|  |
Eb|-2---------------------------|-------------------------------------|  |
Ab|-2-2-2---2-2---2-2---2-----2-|-----2-----2-2-2---2-2---2-2---0-----|  |
      . .   . .   . .   .     .       .     . . .   . .   . .            |
                                                                         | x2
Eb|-------------------------|--------------------------------|           |
Bb|-------------------------|--------------------------------|           |
Gb|-----4-----4-------4-4---|-4-4---4-4-----4----------------|           |
Db|-----4-----4-------4-4---|-4-4---4-4-----4----------------|           |
Ab|-------------------------|--------------------------------|           |
Eb|-------------------------|--------------------------------|           |
Ab|-2-2---2-2---2-2-2-----2-|-----2-----2-2---2-2-0----2--5--|           |
    . .   . .   . . .     .       .     . .   . .


[Chorus]
Eb|----------------------|-----------------|------2------------|
Bb|----------------------|-----------------|---2-----2--3~-----|
Gb|----------------------|-------4---------|-------------------|
Db|-5----5-------2-------|-------4---------|-------------------|  x3
Ab|-5----5-------2-------|--2--------------|-------------------|
Eb|-3----3----2--0-------|--2--------------|-------------------|
Ab|-------------------0--|--2--------------|-------------------|

Eb|----------------------|---------|
Bb|----------------------|---------|
Gb|----------------------|---------|
Db|-5----5-------2-------|---------|
Ab|-5----5-------2-------|------2--|
Eb|-3----3----2--0-------|------2--|
Ab|-------------------0--|---0--2--|


[Bridge]
Eb|-------------------------|-------------|-------------------|
Bb|-------------------------|-------------|------8-10p8-10p8--|
Gb|----------4-\-2----------|-------------|--/9~--------------|
Db|--------5-------4~----0--|--/5~--------|-------------------|
Ab|-/7~---------------------|-------------|-------------------|
Eb|-------------------------|-------------|-------------------|
Ab|-------------------------|-------------|-------------------|

Eb|-------------------------|-------------|----------------------|
Bb|-------------------------|-------------|------12----12----12--|
Gb|----------7-\-4----------|-------------|---------------12-----|
Db|--------9-------5~-------|--/9~--------|-/14~----14-----------|
Ab|-/7~------------------7~-|-------------|----------------------|
Eb|-------------------------|-------------|----------------------|
Ab|-------------------------|-------------|----------------------|

Eb|-------------------------|-------------|-------------------|
Bb|-------------------------|-------------|------8-10p8-10p8--|
Gb|----------4-\-2----------|-------------|--/9~--------------|
Db|--------5-------4~----0--|--/5~--------|-------------------|
Ab|-/7~---------------------|-------------|-------------------|
Eb|-------------------------|-------------|-------------------|
Ab|-------------------------|-------------|-------------------|

Eb|-------------------------|-------------|---------12----12-----|
Bb|-------------------------|-------------|------12----12----12--|
Gb|----------7-\-4----------|-------------|----------------------|
Db|--------9-------5~-------|--/9~--------|-/14~-----------------|
Ab|-/7~------------------7~-|-------------|----------------------|
Eb|-------------------------|-------------|----------------------|
Ab|-------------------------|-------------|----------------------|


[Bridge Part 2]
Eb|-----------------|------------------|--------------------------|  |
Bb|-----------------|------------------|--------------------------|  |
Gb|-4----/8-----/9--|---8----/9----/11-|--9----/11---/12----/16~--|  |
Db|-----------------|------------------|--------------------------|  |
Ab|-2----/6-----/7--|---6----/7----/9--|--7----/9----/10----/14~--|  |
Eb|-----------------|------------------|--------------------------|  |
Ab|-----------------|------------------|--------------------------|  |
                                                                     | x2
Eb|-----------------|------------------|--------------------------|  |
Bb|-----------------|------------------|--------------------------|  |
Gb|-4----/8-----/9--|---12----/11---12-|--------------------------|  |
Db|-----------------|------------------|--7----/9----/12----/14~--|  |
Ab|-2----/6-----/7--|---10----/9----10-|--------------------------|  |
Eb|-----------------|------------------|--5----/7----/10----/12~--|  |
Ab|-----------------|------------------|--------------------------|  |


[Bridge Part 3]
Eb|-------------------------|-------------|-------------------|
Bb|-------------------------|-------------|------8-10p8-10p8--|
Gb|----------4-\-2----------|-------------|--/9~--------------|
Db|--------5-------4~----0--|--/5~--------|-------------------|
Ab|-/7~---------------------|-------------|-------------------|
Eb|-------------------------|-------------|-------------------|
Ab|-------------------------|-------------|-------------------|

Eb|-------------------------|-------------|----------------------|
Bb|-------------------------|-------------|------12----12----12--|
Gb|----------7-\-4----------|-------------|---------------12-----|
Db|--------9-------5~-------|--/9~--------|-/14~----14-----------|
Ab|-/7~------------------7~-|-------------|----------------------|
Eb|-------------------------|-------------|----------------------|
Ab|-------------------------|-------------|----------------------|

Eb|-------------------------|-------------|-------------------|
Bb|-------------------------|-------------|------8-10p8-10p8--|
Gb|----------4-\-2----------|-------------|--/9~--------------|
Db|--------5-------4~----0--|--/5~--------|-------------------|
Ab|-/7~---------------------|-------------|-------------------|
Eb|-------------------------|-------------|------------------|
Ab|-------------------------|-------------|-------------------|

Eb|-------------------------|-------------|---------12----12-----|
Bb|-------------------------|-------------|------12----12----12--|
Gb|----------7-\-4----------|-------------|----------------------|
Db|--------9-------5~-------|--/9~--------|-/14~-----------------|
Ab|-/7~------------------7~-|-------------|----------------------|
Eb|-------------------------|-------------|----------------------|
Ab|-------------------------|-------------|----------------------|


[Chorus]
Eb|----------------------|-----------------|------2------------|
Bb|----------------------|-----------------|---2-----2--3~-----|
Gb|----------------------|-------4---------|-------------------|
Db|-5----5-------2-------|-------4---------|-------------------|  x3
Ab|-5----5-------2-------|--2--------------|-------------------|
Eb|-3----3----2--0-------|--2--------------|-------------------|
Ab|-------------------0--|--2--------------|-------------------|

Eb|----------------------|
Bb|----------------------|
Gb|----------------------|
Db|-5----5-------2-------|
Ab|-5----5-------2-------|
Eb|-3----3----2--0-------|
Ab|-------------------0--|

***********************************
| /   Slide up
| \   Slide down
| ~   Vibrato
| .   Palm Mute
| p   Pull-Off
***********************************

            
            
Suggest correction
Creating personal tab
Creating personal tab
You can edit any tab online and save it as your Personal.

You can edit, replace or remove any tab part or add personal notes – all changes will be seen only by you.

Personal tabs can be accessed anytime from any device, even offline.
Learn more »
Give kudos to tab author, rate the tab!
1 2 3 4 5
comments
print report bad tab
guest
You may want to rate the tab now too:
select rating
Wanna post a correction for this tab? Suggest correction