Oops, an error
Loading. Please wait.

Blaue Augen bass

322 views 6 this week
no commentswrite comment
1 2 3 4 5
2 more votes to show rating
add to favorites
×
Save as Personal and add changes to this tab that will be seen only by you. Learn more ›
×
You can save this tab as Personal to edit and correct it or add notes. All changes will be seen only by you. Learn more »
launch autoscroll
font size
0
reset
guitar tuner
edit
Autoscroll
slow
fast
+/-
esc
set tempo
stop
Author
Difficulty
-------------------------------------------------------------------------------
                             BLAUE AUGEN - SILBERMOND
-------------------------------------------------------------------------------
Tabbed by: Emiel94
E-mail: 

Tuning: Standard

VERSE:

Wait 16 measures
16 Takte abwarten

G|------9---9-------------|      G|------------------------------|
D|----9-------------7---7-| x4   D|------------7---7---------7___|
A|--7-----7-------7-------|      A|----------7-------------------|
E|--------------5-----5---|      E|--0-0---5-----5-----0-0---5___|

REFRAIN

G|----------------------------------------------------------------
D|----------------------------------------------------------------
A|-4-4-4-4-4-4-4-4-5-5-5-5-5-5-5----------------------------------
E|-------------------------------7---7-7-7-7-7-7-7-7-7-7-7-7-7-7-7

G|----------------------------------------------------------------
D|----------------------------------------------------------------
A|-4-4-4-4-4-4-4-4-5-5-5-5-5-5-5----------------------------------
E|-------------------------------5---5-5-5-5-5-5-5-5-5-5-5-5-5-5-5

G|----------------------------------------------------------------
D|----------------------------------------------------------------
A|-4-4-4-4-4-4-4-4-5-5-5-5-5-5-5----------------------------------
E|-------------------------------7---7-7-7-7-7-7-7-7-7-7-7-7-7-7-7

G|----------------------------------------------------------------
D|----------------------------------------------------------------
A|-4-4-4-4-4-4-4-4-5-5-5-5-5-5-5----------------------------------
E|-------------------------------5---5-5-5-5-5-5-5-5-5-4-4-5-5-7-7

G|----------------------------------------------------
D|---------------4-------------------------4----------
A|-4-4-7-4-7-4-4-------------4-4-7-4-7-4-4------------
E|-----------------0-2-x-2-------------------0-2-x-2--

G|--------------------------------------------------------------------------------------------------------|
D|---------------4----------------------------------------------------------------------------------------|
A|-4-4-7-4-7-4-4-------------4-4-7-4-7-4-4----------------------------------------------------------------|
E|-----------------0-2-x-2-----------------5---5-5-5-5-5-5-5-7-7-7-7-7-7-7-7-7---7---7---7---7---7---7---7|

2nd VERSE

G|------9---9-------------|      G|-----------------------------------|
D|----9-------------7---7-| x5   D|------------7---7-------------7---7|
A|--7-----7-------7-------|      A|----------7-----------------7------|
E|--------------5-----5---|      E|--0-0---5-----5-----0-0---5-----5--|

G|------9---9-------------|      G|-----------------------------------------|
D|----9-------------7---7-| x4   D|------------7---7---------7--------------|
A|--7-----7-------7-------|      A|----------7------------------------------|
E|--------------5-----5---|      E|--0-0---5-----5-----0-0---5-5-5-5-5-5-5-5|

REFRAIN

G|----------------------------------------------------------------
D|----------------------------------------------------------------
A|-4-4-4-4-4-4-4-4-5-5-5-5-5-5-5----------------------------------
E|-------------------------------7---7-7-7-7-7-7-7-7-7-7-7-7-7-7-7

G|----------------------------------------------------------------
D|----------------------------------------------------------------
A|-4-4-4-4-4-4-4-4-5-5-5-5-5-5-5----------------------------------
E|-------------------------------5---5-5-5-5-5-5-5-5-5-5-5-5-5-5-5

G|----------------------------------------------------------------
D|----------------------------------------------------------------
A|-4-4-4-4-4-4-4-4-5-5-5-5-5-5-5----------------------------------
E|-------------------------------7---7-7-7-7-7-7-7-7-7-7-7-7-7-7-7

G|----------------------------------------------------------------
D|----------------------------------------------------------------
A|-4-4-4-4-4-4-4-4-5-5-5-5-5-5-5----------------------------------
E|-------------------------------5---5-5-5-5-5-5-5-4-4-4-4-5-5-7-7

G|---------------------------------------------------2-4--
D|---------------4-------------------------4-4-2-2-4------
A|-4-4-7-4-7-4-4-------------4-4-7-4-7-4-4----------------
E|-----------------0-2-x-2--------------------------------

G|--------------------------------------------------------------------------------------------------------|
D|---------------4----------------------------------------------------------------------------------------|
A|-4-4-7-4-7-4-4-------------4-4-7-4-7-4-4----------------------------------------------------------------|
E|-----------------0-2-x-2-----------------5---5-5-5-5-5-5-5-7-7-7-7-7-7-7-7-7---7---7---7---7---7---7---7|

INTERLUDE

Wait 4 measures
4 Takte abwarten

G|---------------------------------------------------------------
D|---------------------------------------------------------------
A|4-4-4-4-4-4-4-4-6-6-6-6-6-6-6-6-7-7-7-7-7-7-7-7-9-9-9-9-9-9-9-9
E|---------------------------------------------------------------

G|----------------------------------------------------------------
D|----------------------------------------------------------------
A|-6---6---6-6-6-6-7-7-7-7---7-7-7-4---4---4-4-4-4-2-2-2-2---2-2-2
E|----------------------------------------------------------------

G|--------------------------------------------------- ---|--- ---|
D|---------------------------------------------7-9--- ---|--- ---|
A|--------------------------------------------------- ---|--- ---|
E|-4---4---4-4-4-4-5-5-5-5---5-5-5-7---7---7-7------- ---|9\2 ---|

Actually last Note is a low C# in the original Version but if you don't have a 5 String Bass
or want to tune down completely, don't bother, no one will notice ;)
Die letzte Note ist eigentlich ein tiefes C# im Original aber wenn du keinen 5-Saiter hast
bzw. dafür nicht komplett runter Stimmen willst stör dich nicht daran, niemand wird es merken ;)

REFRAIN

Starts with the last 8th Note of this measure
Beginnt mit einer Achtelnote als Auftakt

G| (7/8) |---------------------------------
D|       |---------------------------------
A|       |---------------------------------
E|       |7-7-7-7-7-7-7-7-7-7-7-7-7-7-7-7-7

G|----------------------------------------------------------------
D|----------------------------------------------------------------
A|-4-4-4-4-4-4-4-4-5-5-5-5-5-5-5----------------------------------
E|-------------------------------5---5-5-5-5-5-5-5-5-5-5-5-5-5-5-5

G|----------------------------------------------------------------
D|----------------------------------------------------------------
A|-4-4-4-4-4-4-4-4-5-5-5-5-5-5-5----------------------------------
E|-------------------------------7---7-7-7-7-7-7-7-7-7-7-7-7-7-7-7

G|------------------------------------------------------------------------
D|------------------------------------------------------------------------
A|-4-4-4-4-4-4-4-4-5-5-5-5-5-5-5------------------/12-12-12-12-12-12-12-12
E|-------------------------------5---5-5-5-5-5-5-5------------------------

G|----------------------------------------------------------------
D|----------------------------------------------------------------
A|-4-4-4-4-4-4-4-4-5-5-5-5---7-5----------------------------------
E|-------------------------7-----7---7-7-7-7-7-7-7-7-7-7-7-7-7-7-7

G|----------------------------------------------------------------
D|----------------------------------------------------------------
A|-4-4-4-4-4-4-4-4-5-5-5-5-5-5-5----------------------------------
E|-------------------------------5---5-5-5-5-5-5-5-5-5-5-5-5-5-5-5

G|----------------------------------------------------------------
D|----------------------------------------------------------------
A|-4-4-4-4-4-4-4-4-5-5-5-5-5-5-5----------------------------------
E|-------------------------------7---7-7-7-7-7-7-7-7-7-7-7-7-7-7-7


G|-----------------------------------------------------------------------------|
D|-----------------------------------------------------------------------------|
A|-4-4-4-4-4-4-4-4-5-5-5-5-5-5-5---------------------------------4------4______|
E|-------------------------------5---5-5-5-5-5-5-5-2-2-4-4-5-5-7---------------|


| __ hold note 
| /  slide up
| \  slide down
| x  Mute note

===============================================================================

            
            
Suggest correction
Creating personal tab
Creating personal tab
You can edit any tab online and save it as your Personal.

You can edit, replace or remove any tab part or add personal notes – all changes will be seen only by you.

Personal tabs can be accessed anytime from any device, even offline.
Learn more »
Give kudos to tab author, rate the tab!
1 2 3 4 5
comments
print report bad tab
guest
You may want to rate the tab now too:
select rating
Wanna post a correction for this tab? Suggest correction