Oops, an error
Loading. Please wait.

Camisa De Once Varas Tab

21 views 1 this week
no commentswrite comment
1 2 3 4 5
3 more votes to show rating
add to favorites
launch autoscroll
font size
0
reset
how to read this tab
guitar tuner
Autoscroll
slow
fast
+/-
esc
set tempo
stop
Help us to improve Ultimate-Guitar.com Take our survey!
×
Bueno señores, este es el punteo de 'camisa de once varas'
de los Silencio desde el minuto 1:37 hasta er 2:12 (inkluyend
er de la trompeta esa)

 h = hammer on
 b = bend

e|-----------------------------------------5--5-4----------
B|-7--7-5---------5-6-5-------5-6-5---------------7-5--7-8-
G|--------7-5-5-7-------7-5-7-------7-5--------------------
D|---------------------------------------------------------
A|---------------------------------------------------------
E|---------------------------------------------------------

--5-7---5-5h7-5-5h7-5-5h7-5-5h7...*--b8-----6-8---7-7h9-7-7h9
----------------------------------------6-8------------------
-------------------------------------------------------------
-------------------------------------------------------------
-------------------------------------------------------------
-------------------------------------------------------------

-7-7h9-7-7h9...*--b11-b12-|
--------------------------|
--------------------------|
--------------------------|
--------------------------|
--------------------------|

*= aki aseis lo k pone las beses ke kreais xke no las e kontao...

y este punteo es er 'punteo' de la trompeta k sale dspue der punteo darriba
lo sakao x si argien kiere kambiarle el efecto a la pedalera y aserlo...

e|-7h8h7-5----7h8h7-5---------------------------------------------
B|---------8----------8-7-5--------5-7----------------------------
G|--------------------------7---5-7-------------------------------
D|---------------------------------------7h9-7h9-7h9-8h10-8h10-8h10
A|----------------------------------------------------------------
E|----------------------------------------------------------------

--------------------------|
----------------b6-----b6-|
-7h9-7h9-b9-7-9----7-9----|
--------------------------|
--------------------------|
--------------------------|

Nota:
(Los akordes durante todo el punteo son Sol La Si La Sol La Si repetidamente)

Weno, sta e mi primera tablatura, spero keste bien esha, se la dediko
a los korgao de mi grupo en spesia...xD)

ElHombreKeVive,SueñaLoKeEs,HastaDespertar
Suggest correction
Give kudos to tab author, rate the tab!
1 2 3 4 5
comments
print report bad tab
guest
You may want to rate the tab now too:
select rating
Wanna post a correction for this tab? Suggest correction