Oops, an error
Loading. Please wait.

Esta Es Mi Historia Bass Tab

6 views 1 this week
no commentswrite comment
1 2 3 4 5
3 more votes to show rating
add to favorites
launch autoscroll
font size
0
reset
guitar tuner
×
Best way to learn
"Esta Es Mi Historia"
Autoscroll
slow
fast
+/-
esc
set tempo
stop
Bueno aqui voy con otra cancion para bajo:
La canción empieza el bajo y la guitarra:

G:-------57575757------------------
D:---------------------------------
A:-0-3------------3---0-3---0-3----
E:-----3------------3-----3-----3--

Despues entra la melodia y el bajo hace lo siguiente:
G:--------------------------------------------------
D:------2-------2-------2-------2-------------------
A:--0-3---3-0-3---3-0-3---3-0-3---3-33333333-------- x2
E:------------------------------------------33333333

Luego empiezan a cantar y suena esto
G:----------------------------------
D:---2---2---2---2---2---2---------- x4
A:-0---0---0---0---3---3-----2---2--
E:-------------------------3---3----

Luego se repite el segundo riff
Vuelve a cantar y el tercer riff
Otra vez el segundo riff

Ahora empieza el estribillo(no creo en los reyes magos...)
G:----------------------------------
D:----------------------------------
A:-3--3------------3--3-------------
E:-------33333333--------33333333---

Ahora el trozo de despues del estribillo(donde esta el...)
G:-----------------------------------
D:-----------------------------------
A:--------33333333-------------------
E:11111111--------11111113333333-----

Ahora se mantiene en A:---0--0--0--0--

Luego el segundo riff
Estribillo
Lo de despues del estribllo
y termina en A:--0--0--0--0--0

Bueno espero k le deis caña al bajo y no rompais
una cuerda que estan caras:
                          ...Gandy...
Suggest correction
Give kudos to tab author, rate the tab!
1 2 3 4 5
comments
print report bad tab
guest
You may want to rate the tab now too:
select rating
Wanna post a correction for this tab? Suggest correction