Oops, an error
Loading. Please wait.

Marihuana Tab

48 views 1 this week
no commentswrite comment
1 2 3 4 5
3 more votes to show rating
add to favorites
launch autoscroll
font size
0
reset
how to read this tab
guitar tuner
Autoscroll
slow
fast
+/-
esc
set tempo
stop
Help us to improve Ultimate-Guitar.com Take our survey!
×
___________

Corrección y complementación de transcripción anterior.
Datos de transcripción anterior:
daoiz zamora Pérez (Chao)
el_chao@

__________

Hola a tooodooos!...soy nelsonsnsnsnsns...
y esta es mi primera aparición en la  así que por favor
suaves con las críticas =(  xD!...

La pasé así sólo con el oído asi que cualquier errorcito, pifia,
dedo esguinzado y esas cosas...por fa` me avisan...
le doy las gracias a mis tutores en
guitarra eléctrica y hermanos del alma...

Leonardo Flores!!! y Esteban Pérez!!!...
que son demasiado bknes y los kiero kaleta!!...

Bueno ahí les va!!...

a mí stylo!!!...

Esta es la versión para guitarra eléctrica y acústica...ya que sólo
se diferencian si la tocas con riff`s o acordes...

la hice universal y educativa...!!

Este es el intro medio skaaaaamén...xD!

e--9-----9---9---9---9---9---9--------7----7--7--7--7--7--7----
b--10----10--10--10--10--10--10-------9----9--9--9--9--9--9----
g--------------------------------------------------------------
d--------------------------------------------------------------
a--------------------------------------------------------------
E--------------------------------------------------------------

e--5---5--5--5--5--5--5-------4--5 ...-------------------------
b--7---7--7--7--7--7--7-------5--7 ...-------------------------
g--------------------------------------------------------------
d--------------------------------------------------------------
a--------------------------------------------------------------
E--------------------------------------------------------------


Y este es el puntéo JEJJEJE...ajam...ke viene después...


e--12--10--9------9--10------------------9--10--9---------------
b-------------12---------12------10--12---------------12--10--12
g---------------------------------------------------------------
d---------------------------------------------------------------
a---------------------------------------------------------------
E---------------------------------------------------------------


e---------------9-------------------------------
b----9--10--12-----12--10--9--10--9-------------
g------------------------------------9--9/11-9~-  > Dos veces...
d-----------------------------------------------
a-----------------------------------------------
E-----------------------------------------------

Y luego el loko canta...y ustedes lo siguen con los riff`s

de: La, Mi, Fa#m y Re

son estos por si acaso...

      E A D G B E
La  : 5 7 7 X X X
Mi  : X 7 9 9 X X
Fa#m: 2 4 4 X X X
Re  : X 5 7 7 X X

(Cuando ponga un número al lado de la nota...es el
número de veces del rasguéo, si es uno la dejan sonar)

LA (1)        MI (6)               FA#m (1)
Ya llega el otoño me vuelvo a ilusionar
                RE (6)     LA (6)
Este año la cosecha no me ha ido nada mal
LA (6)           MI (6)
Verde llega el placer
     FA#m (6)               RE (1)
y en la hierva se sentó la risa...


(la segunda guitarra hace algo así)

   |     LA     |    MI       |     FA#m      |    RE         |
e---------------|-------------|---------------|------------------
b---------------|-------------|---------------|------------------
g---6---6-6--6--|6----6-6---6-|-6---6-6---6---|7----7--7--6------
d-----7----7--7-|-7------7---7|--7-----7---7--|-7------------9---
a---------------|-------------|---------------|------------------
E---------------|-------------|---------------|------------------


   |     LA     |    MI        |      FA#m    |    RE        |
e---------------|--------------|--------------|-------------------
b---------------|--------------|--------------|-------------------
g---7^9-9-9-7-6-|--------------|-7^9-9-9-9--7-|6------------------
d---------------|-7-6-7-6-7-6-9|--------------|------9---7--------
a---------------|--------------|--------------|-------------------
E---------------|--------------|--------------|-------------------


LA (PM)
Indica colombiana
LA - MI (PM)
Sativa mexicana
MI - FA#m (PM)
Trompeta jamaicana
RE
Como me voy a poner

LA                    MI                FA#m
Vuelo a ninguna parte no tengo prisa por volver
                  RE                 LA (Apañado o Palm Mute)
Esto no es solo vicio, la magia del THC

    MI     FA#m      RE
Marihuana, fumar marihuana
La (Apañado o Palm Mute)                                 La [libre]
Saco un papelito meto medio cigarrito me lo curro me lo lío
    MI    FA#m      RE
Marihuana fumar marihuana


Esta parte es lo que hace la trompeta...por si les falta una no? ...


e------------------------------------------
b-12--10--12----12--10--12----12--10--12---
g------------------------------------------
d------------------------------------------
a------------------------------------------
E------------------------------------------


e--------------------------------------
b-10------10--------10----10--10/12-10-
g---11---------11----11----------------
d--------------------------------------
a--------------------------------------
E--------------------------------------


e-------------------------------
b---12--10--12----12--10--12----
g-------------------------------
d-------------------------------
a-------------------------------
E-------------------------------

e--------------12--10--------------------------------
b-----10--12----------12--10-----10--10--10/12-10----
g-11--------------------------11---------------------
d----------------------------------------------------
a----------------------------------------------------
Ed----------------------------------------------------

En esta parte la guitarra usa un Phase9 y un Delay4 de pedalera digital
más o menos y pueden tocar lo mismo siguiendo la letra...
(este si ke no lo kaché muy bien =S )

   |     LA     |    MI        |      FA#m    |    RE          |
e---------------|--------------|--------------|-----------------
b---------------|--------------|--------------|-----------------
g---7^9-----7-6-|--------------|-7^9----9--7-6|-----------------
d---------------|-7--6--7--9---|--------------|------9---7--6/7-Dos veces
a---------------|--------------|--------------|-----------------
E---------------|--------------|--------------|-----------------

1era vez

LA
Me saco un papelillo
MI
Me lío un cigarrillo
FA#m
Y me siento feliz
RE
Y me pongo a pensar

2da vez

LA
Porque será ilegal
MI
Si es medicinal
FA#m
Estimula la risa
RE              (Riff69)
Y eso alarga la vida.

e------------------------------------------------------------------
b------------------------------------------------------------------
g------------------------------------------------------------------
d------------------------------------------------------------------
a----6/7--7-7--7-7----6/7--7-7--7-7----6/7--7-7--7-7----6-4-2------
E----4/5--5-5--5-5----4/5--5-5--5-5----4/5--5-5--5-5----4-2-0------


    MI     FA#m      RE                                          ¨|
Marihuana, fumar marihuana                                        |
La (Apañado o Palm Mute)                                 La(libre)|
Saco un papelito meto medio cigarrito me lo curro me lo lío       |> x 4!!
    MI    FA#m    RE                                              |
Marihuana fumar marihuana                                        _|

LA
Shu shucu tu papa tu papa...
MI
Shu shucu tu papa tu papa...
FA#m                     RE
Shu shucu tu papa tu papapaaaaaa...(x2)

Y esto hace la guitarra 15 segundos antes de que termine el tema...

e------------------------------------------------------------------
b------------------------------------------------------------------
g-6-6-6-4---4-4-4---4---6-6-6--4-6-7-6-4---------------------------
d---------7-------7------------------------------------------------
a------------------------------------------------------------------
E------------------------------------------------------------------


e------------------------------------------------------------------
b------------------------------------------------------------------
g-6-6-6-4---4-4-4---4---6-6-6--4-6-7-7-7-6-4--7-7-7-6-4-7-7-7-6-4--
d---------7-------7-----------------------------------------------7...
a-----------------------------------------------------------------5...
E-----------------------------------------------------------------5...

                         FIN!! xD!

Y eso pos...lo hice lo más apegado a la canción...les juro ke fué
a pura oreja así ke perdón los errores y todo eso...

Se cuidan todos!...si fuman ke no sea de vicio!!!!...

Un besote grande a mi hijo !!!!Diego!!!!! que es mi razón de vivir,
a su madre ke me lo ha traido al mundo.
Los amo demasiado.
Mi familia chica Calderón Arévalo.

Y a toda mi familia Calderón Barrera!!xD!

Adiós.

mail: neludie@  - flog: 
Suggest correction
Give kudos to tab author, rate the tab!
1 2 3 4 5
comments
print report bad tab
guest
You may want to rate the tab now too:
select rating
Wanna post a correction for this tab? Suggest correction