Oops, an error
Loading. Please wait.

Oigo Campanas Tab

5 views 1 this week
no commentswrite comment
1 2 3 4 5
3 more votes to show rating
add to favorites
launch autoscroll
font size
0
reset
how to read this tab
guitar tuner
×
Best way to learn
"Oigo Campanas"
Autoscroll
slow
fast
+/-
esc
set tempo
stop
Acompañando a los acordes del principio:
e--------
B--------
G--7h9---
D--------
A--------
E-------- x4


Cuando empieza a cantar...
e---------------------------------------------------------------------
B-------------------------8-7-----------------------------------------
G--9----7h9----7h9----7h9----9----9----7h9----7h9----7h9-7h9-7h9-7h9--
D---------------------------------------------------------------------
A---------------------------------------------------------------------
E---------------------------------------------------------------------


Cuando canta "la sangre aún me hierve..."
e------------------------------------------------------------------------
B------------------------------------------------------------------------
G--7-------------------7---------------7-------------------7-------------
D------9-10-9-7------------9---10----------9-10-9-7----------------------
A------------------------------------------------------------------------
E------------------------------------------------------------------------


Solo que hace el saxo (min. 1:48)
e---------------------------------------------------------------
B------------------------------------------------8-10-10-12-12--
G-----------------------------------7-9------7-9----------------
D--9-7---5-9---7-5----9-7---5-9---7-----------------------------
A------------------7--------------------------------------------
E---------------------------------------------------------------

 ---------------------------------------------------------------
 --12-10-8-------8-10-10-12-12-10-8------------8-10-12-12-10-12-
 ----------9-7-9--------------------9----9-979------------------
 ---------------------------------------------------------------
 ---------------------------------------------------------------
 ---------------------------------------------------------------

 ---------------------------------------------------------------
 --------8-10-12-12-10-10-------12----12-10-8---8-10-12---------
 --9-979--------------------------------------9-----------------
 ---------------------------------------------------------------
 ---------------------------------------------------------------
 ---------------------------------------------------------------

 --------------------------
 --12----12-10-8-10-8------
 ---------------------9----
 --------------------------
 --------------------------
 --------------------------


Después el solo (m. 2:22)
e--------------
B--------8-----
G------9-9-----
D----9---------
A--7-----------
E--------------


h - Hammer on

MaXDamage
Suggest correction
Give kudos to tab author, rate the tab!
1 2 3 4 5
comments
print report bad tab
guest
You may want to rate the tab now too:
select rating
Wanna post a correction for this tab? Suggest correction