Oops, an error
Loading. Please wait.

Falling Down tab

676 views 3 this week
3 commentsread comments
1 2 3 4 5
x 5
add to favorites
×
Save as Personal and add changes to this tab that will be seen only by you. Learn more ›
×
You can save this tab as Personal to edit and correct it or add notes. All changes will be seen only by you. Learn more »
launch autoscroll
font size
0
reset
how to read this tab
guitar tuner
edit
Autoscroll
slow
fast
+/-
esc
set tempo
stop
----------------------------------------------------------------------------
                            Falling down - silent civilian
----------------------------------------------------------------------------

Tabbed by: sean crow
Email: die_for_nothing_323@hotmail.com
AIM: black0range555                       If im right this is civilian's 
Tuning:  CGCFAd                           shortest song (minus intro) but it
                                          was still pretty hard figure out!
RATE AND COMMENT!!                        (not too hard to play though!)

e|------------------------------|
B|------------------------------|
G|------------------------------|
D|-77-787-757-744-(x3)--3~~-2~~-|   Play line 3x
A|-55-565-535-522-------3~~-2~~-|
E|----------------------3~~-2~~-|

e|---------------------------------------|
B|---------------------------------------|
G|---------------------------------------|
D|-0----0---65---65-(x3)-0----0----5-3-2-|  Play line 2x
A|-0-00-0-0-65-0-65------0-00-0-00-5-3-2-|
E|-0-00-0-0-65-0-65------0-00-0-00-5-3-2-|
     ..   .    .           ..   ..

e|----------------------|            e|----------------|
B|----------------------|            B|----------------|
G|-7~~-10~~-13~~-9~-12~-|            G|----------------|
D|-x~~--x~~--x~~-x~--x~-|  Play 2x   D|-77-787-757-744-|  play 2x
A|-5~~--8~~-11~~-7~-10~-|            A|-55-565-535-522-|
E|----------------------|            E|----------------|

e|------------------------------|
B|------------------------------|
G|------------------------------|
D|-77-787-757-744-(x3)--3~~-2~~-|   Play line 3x
A|-55-565-535-522-------3~~-2~~-|
E|----------------------3~~-2~~-|

e|---------------------------------------|
B|---------------------------------------|
G|---------------------------------------|
D|-0----0---65---65-(x3)-0----0----5-3-2-|  Play line 2x
A|-0-00-0-0-65-0-65------0-00-0-00-5-3-2-|
E|-0-00-0-0-65-0-65------0-00-0-00-5-3-2-|
     ..   .    .           ..   ..
e|----------------------|             e|------------------------------|
B|----------------------|             B|------------------------------|
G|-7~~-10~~-13~~-9~-12~-|             G|------------------------------|
D|-x~~--x~~--x~~-x~--x~-| play 2x     D|-77-787-757-744-(x3)--3~~-2~~-|
A|-5~~--8~~-11~~-7~-10~-|             A|-55-565-535-522-------3~~-2~~-|
E|----------------------|             E|----------------------3~~-2~~-|

           ********** Solo starts (only rythm here)**********

e|------------------------------|
B|------------------------------|
G|------------------------------|
D|-77-787-757-744-(x3)--3~~-2~~-|   Play line 3x
A|-55-565-535-522-------3~~-2~~-|
E|----------------------3~~-2~~-|

e|--------------|
B|--------------|
G|--------------|
D|-0~~~~~~~~~~~~|   END OF SOLO AND SONG!!!
A|-0~~~~~~~~~~~~|
E|-0~~~~~~~~~~~~|




            
            
Suggest correction
Creating personal tab
Creating personal tab
You can edit any tab online and save it as your Personal.

You can edit, replace or remove any tab part or add personal notes – all changes will be seen only by you.

Personal tabs can be accessed anytime from any device, even offline.
Learn more »
comments
print report bad tab
3 comments total.
0 reply
sarahlane 10 Sep 12, 2006 02:05 PM

WOW seanius u rule with these tabs, u still need live again but all the rest seem perfectish is me...ROCK ON

0 reply
Inflimaira1021 10 Mar 13, 2007 05:39 PM

the intro riff is wrong. instead of the 4 it shuld be
2 6
6

0 reply
Inflimaira1021 10 Mar 13, 2007 05:40 PM

my comment got all mesed up but i was trying to say that the 4 and 2 chord should be a 6 chord on the two bottom strings

guest
You may want to rate the tab now too:
select rating
Wanna post a correction for this tab? Suggest correction