Oops, an error
Loading. Please wait.

Funeral tab

version 2
version 2

Whole song

Interactive

4,605 views 1 this week
4 commentsread comments
1 2 3 4 5
x 7
add to favorites
×
Save as Personal and add changes to this tab that will be seen only by you. Learn more ›
×
You can save this tab as Personal to edit and correct it or add notes. All changes will be seen only by you. Learn more »
launch autoscroll
font size
0
reset
how to read this tab
guitar tuner
edit
Autoscroll
slow
fast
+/-
esc
set tempo
stop
Song: Funeral
Artist: Silent Civilan
Album: Rebirth Of The Temple
Tabbed by: Christian Abbott
Key: .= Palm Mute
     t= Tremolo pick
     p= pull
     h= hammer
     *= Pinch Harmonic
     /= Slide down
     \= Slide up
     ~= Hold Note
====> = Do Fast
     v= VibratoIntro- Guitar 1-
D -----------------------------------------------------------------------|
A -----------------------------------------------------------------------|
F -----------------------------------------------------------------------|
C -7-8-5\7\8-7------------7-8-5\7\8-6------------7-8-5\7\8---------------|
G -5-6-3\5\6-5------------5-6-3\5\6-4------------5-6-3\5\6-9-------------|
C --0---------000-000-000--0---------000-000-000--0--------0-000-000-000-|
    .         ... ... ...  .         ... ... ...  .          ... ... ...
D ---------------------------------------|
A ---------------------------------------| This is one of my favorite
F -----------------------------x2--------| riffs of all time other than
C -7-8-5\7\8-7-8-5-8---------------------| Randy Rhodes crazy train.
G -5-6-3\5\6-5-6-3-6---------------------|
C --0------------------------------------|
    .

Intro- Guitar 2 Not much different...look carefully.
D ----------------------------------------------------------------------|
A ----------------------------------------------------------------------|
F ----------------------------------------------------------------------|
C -7-8-5\7\8-7------------7-8-5\7\8-6------------7-8-5\7\8-7------------|
G -5-6-3\5\6-5------------5-6-3\5\6-4------------5-6-3\5\6-5------------|
C --0---------000-000-000--0---------000-000-000--0---------000-000-000-|
    .         ... ... ...  .         ... ... ...  .         ... ... ...
D ---------------------------------------|
A ---------------------------------------|
F -----------------------------x2--------|
C -7-8-5\7\8-7-8-5-8---------------------|
G -5-6-3\5\6-5-6-3-6---------------------|
C --0------------------------------------|
    .

Pre-Verse- Guitar 1 (part with the HEYs.)
D -------------------------------Hard to hear..not 100%-sure-----------|
A ---------------------------------------------------X2----------------|
F ------------------------------------------------------sounds-okay----|
C -0~-----1~-----3---1---3-0~-----6~----3---1---3-0--------------------|
G -0~--00-1~-1-1-3-0-1-0-3-0~--00-6~-00-3-0-1-0-3-0--------------------|
C -0~--00-1~-1-1-3-0-1-0-3-0~--00-6~-00-3-0-1-0-3-0--------------------|

Pre-Verse- Guitar 2
D -----------------------------------------------|
A -----------------------------------------------|
F ---------------------------------x2------------|
C -----------------------------------------------|
G -5~-5-6~-8-3-6-5~-5-3~-3-6-8-6-5---------------|
C -----------------------------------------------|

Verse pt.1- Guitar 1
D --------------------------------------------------------------------------|
A ------------------------------------------------x1------------------------|
F --------------------------------------------------------------------------|
C 0----------------0------8p0h7p0h5p0h7*0------------------0-------88887777-|
G 000-6-5--8-6-5-6*000-6-5--------------0-00-6-5--8-6-5-6*-000-6-5-88887777-|
C 000--0-00-0-0-0--000--0---------------0-00--0-00-0-0-0---000--0--88887777-|
   ..  . .. . . .   ..  .                 ..  . .. . . .    ..  .
Verse pt.1- Guitar 2
D --------------------------------------------------------------------------|
A --------------------------------------------x1----------------------------|
F --------------------------------------------------------------------------|
C -0----------------------------------/\0--------------------------88887777-|
G -0-00-------------------------------/\0-00-----------------------88887777-|
C -0-00-------------------------------/\0-00-----------------------88887777-|
     ..                                   ..

Verse pt.2- Guitar 1+2
D --------------------------------------------------------------------------|
A ------------------------------------------------x2------------------------|
F --------------------------------------------------------------------------|
C 0----------------0------8p0h7p0h5p0h7*0-----------------0-------88887777--|
G 000-6-5--8-6-5-6*000-6-5--------------000-6-5--8-6-5-6*-000-6-5-88887777--|
C 000--0-00-0-0-0--000--0---------------000--0-00-0-0-0---000--0--88887777--|
   ..  . .. . . .   ..  .                ..  . .. . . .    ..  .

Verse pt.3- Guitar 1
D --------------------------------------------------------------------------|
A -----------------------------------------------------------x1-------------|
F --------------------------------------------------------------------------|
C 0----------------0------8p0h7p0h5p0h7*0------------------0-------88887777-|
G 000-6-5--8-6-5-6*000-6-5--------------0-00-6-5--8-6-5-6*-000-6-5-88887777-|
C 000--0-00-0-0-0--000--0---------------0-00--0-00-0-0-0---000--0--88887777-|
   ..  . .. . . .   ..  .                 ..  . .. . . .    ..  .

Verse pt.3- Guitar 2 (not 100% but still sounds good.)

D---------------------------10p0h8p0h7p0h8*---------------------------------|
A-----8-7--10-8-7-8*-----8-7-------------------8-7--10-8-7-8*----8-7--(x1)--|
F------0-00--0-0-0--------0---------------------0-00--0-0-0-------0---------|
C-0-----------------0-----------------------0-----------------0-----88887777|
G-000---------------000---------------------000---------------000---88887777|
C-000---------------000---------------------000---------------000---88887777|
    ..  . ..  . . .   ..   .                  .. . ..  . . .    .. .

Verse pt.4- Guitar 1
D ---------------------------------------|
A ---------------------------------x1----|
F ---------------------------------------|
C -7~-----6~-----7~-----6~---------------|
G -5~-----4~-----5~-----4~---------------|
C ---------------------------------------|

Verse pt.4- Guitar 2
D -------------------------------------------------------------------------|
A -------------------------------------------------------------------------|
F -------------------------------------------------------------------------|
C -----------------------------------------------------------2-----------2-|
G 5p4h5p4h8-5p4h5p4h5p4h8-5p4h5p4h5p4h8-5p4h5p4h5p4h8-4p3h4p3-4p3h4p3h4p3--|
C -------------------------------------------------------------------------|

D ----------------------------------x2--|
A --------------------------------------|
F --------------------------------------|
C ------------2-------------------------|
G -4p3h4p3h4p3-4p3h4p3h4p3p0b-----------|
C --------------------------------------|

Chorus- Guitar 1
D -----------------------------------------|
A -------------------------------x2--------|
F -----------------------------------------|
C -2~--0~--10~-5-3-2~--0~--10~--13131313---|
G -2~--0~--10~-5-3-2~--0~--10~--13131313---|
C -2~--0~--10~-5-3-2~--0~--10~--13131313---|

Chorus- Guitar 2 (I think this is 80%, sounds good though)
D ---------------------------------------------------------------------|
A ---------------------------------------------------------------------|
F -------12-11-9-11-12-11--------12-11-9-14-12-11-----12-11-9-11-12-11-|
C -9-9-9-----------------10-10-10----------------9-9-9-----------------|
G ---------------------------------------------------------------------|
C ---------------------------------------------------------------------|
{} means dont play second time.
D -----------------------------------------------------------------------|
A ---------------------------------------------------------13-10-12-14}--|
F ---------12-11-9-14-12-11--12-11-9--14-11-12-{14-11-12-14--------------|
C -10-10-10--------------------------------------------------------------|
G -----------------------------------------------------------------------|
C -----------------------------------------------------------------------|

Then you play This- Guitar 1
D -----------------------------------------------------------------------|
A -----------------------------------------------------------------------|
F -----------------------------------------------------------------------|
C -7-8-5\7\8-7------------7-8-5\7\8-6------------7-8-5\7\8---------------|
G -5-6-3\5\6-5------------5-6-3\5\6-4------------5-6-3\5\6-9-------------|
C --0---------000-000-000--0---------000-000-000--0--------0-000-000-000-|
    .         ... ... ...  .         ... ... ...  .          ... ... ...
D ---------------------------------------------------|
A ---------------------------------------------------|
F ---------------------------------------------------|
C -7-8-5\7\8-12-10-8-10-8-7-8-7-5-7-5-4--------------|
G -5-6-3\5\6-----------------------------------------|
C --0------------------------------------------------|
    .

 Guitar 2- not much different, again, look carefully
D ----------------------------------------------------------------------|
A ----------------------------------------------------------------------|
F ----------------------------------------------------------------------|
C -7-8-5\7\8-7------------7-8-5\7\8-6------------7-8-5\7\8-7------------|
G -5-6-3\5\6-5------------5-6-3\5\6-4------------5-6-3\5\6-5------------|
C --0---------000-000-000--0---------000-000-000--0---------000-000-000-|
    .         ... ... ...  .         ... ... ...  .         ... ... ...
D -------------------------------------------------|
A -------------------------------------------------|
F -------------------------------------------------|
C -7-8-5\7\8---------------------------------------|
G -5-6-3\5\6--10-8-6-8-6-5-6-5-3-5-3-1-------------|
C --0----------------------------------------------|
    .

Then...
D ----------------------------|
A ----------------------------|
F ----------------------------|
C -000-0-000-0----------------|
G -000-0-000-0-=====>---------|
C -000-0-000-0-0\15/0---------|

Verse pt.2- Guitar 1+2
D --------------------------------------------------------------------------|
A ------------------------------------------------x1------------------------|
F --------------------------------------------------------------------------|
C 0----------------0------8p0h7p0h5p0h7*0-----------------0-------88887777--|
G 000-6-5--8-6-5-6*000-6-5--------------000-6-5--8-6-5-6*-000-6-5-88887777--|
C 000--0-00-0-0-0--000--0---------------000--0-00-0-0-0---000--0--88887777--|
   ..  . .. . . .   ..  .                ..  . .. . . .    ..  .

Then This part
D ---------------------------------------------------------------------|
A ---------------------------------------------------X1----------------|
F ---------------------------------------------------------------------|
C -0~-----1~-----3---1---3-0~-----6~----3---1---3-0--------------------|
G -0~--00-1~-1-1-3-0-1-0-3-0~--00-6~-00-3-0-1-0-3-0--------------------|
C -0~--00-1~-1-1-3-0-1-0-3-0~--00-6~-00-3-0-1-0-3-0--------------------|

Pre-Verse- Guitar 2
D -----------------------------------------------|
A -----------------------------------------------|
F ---------------------------------x1------------|
C -----------------------------------------------|
G -5~-5-6~-8-3-6-5~-5-3~-3-6-8-6-5---------------|
C -----------------------------------------------|

Verse pt.4- Guitar 1
D ---------------------------------------|
A ---------------------------------x1----|
F ---------------------------------------|
C -7~-----6~-----7~-----6~---------------|
G -5~-----4~-----5~-----4~---------------|
C ---------------------------------------|

Verse pt.4- Guitar 2
D -------------------------------------------------------------------------|
A -------------------------------------------------------------------------|
F -------------------------------------------------------------------------|
C -----------------------------------------------------------2-----------2-|
G 5p4h5p4h8-5p4h5p4h5p4h8-5p4h5p4h5p4h8-5p4h5p4h5p4h8-4p3h4p3-4p3h4p3h4p3--|
C -------------------------------------------------------------------------|

D ----------------------------------x2----------------------------|
A ----------------------------------------------------------------|
F ----------------------------------------------------------------|
C ------------2---------------------------------------------------|
G -4p3h4p3h4p3-4p3h4p3h4p3p0b-------------------------------------|
C ----------------------------------------------------------------|

Chorus- Guitar 1
D -----------------------------------------|
A -------------------------------x2--------|
F -----------------------------------------|
C -2~--0~--10~-5-3-2~--0~--10~--13131313---|
G -2~--0~--10~-5-3-2~--0~--10~--13131313---|
C -2~--0~--10~-5-3-2~--0~--10~--13131313---|

Chorus- Guitar 2 (I think this is 80%, sounds good though)
D ---------------------------------------------------------------------|
A ---------------------------------------------------------------------|
F -------12-11-9-11-12-11--------12-11-9-14-12-11-----12-11-9-11-12-11-|
C -9-9-9-----------------10-10-10----------------9-9-9-----------------|
G ---------------------------------------------------------------------|
C ---------------------------------------------------------------------|
{} means dont play second time.
D -----------------------------------------------------------------------|
A ---------------------------------------------------------13-10-12-14}--|
F ---------12-11-9-14-12-11--12-11-9--14-11-12-{14-11-12-14--------------|
C -10-10-10--------------------------------------------------------------|
G -----------------------------------------------------------------------|
C -----------------------------------------------------------------------|


Under-Solo pt.1- Guitar 1
D ----------------------------------------------x5-------|
A -------------------------------------------------------|
F -------------------------------------------------------|
C -00-00-00-001-0000-00-001-0000-00-006-6-66-666-5-3-----|
G -00-00-00-001-0000-00-001-0000-00-006-6-66-666-5-3-----|
C -00-00-00-001-0000-00-001-0000-00-006-6-66-666-5-3-----|
   .. .. .. ..  .... .. ..  .... .. ..

Solo pt.1- Guitar 2

D --------------------------------------------------------------------------|
A -------------10-8p7h8p7h8~-8-10-11-13-11-10-12p10h12----------------------|
F -7-7*-7-9-10----------------------------------------12-10-12p10h12--------|
C ------------------------------------------------------------------12-10-9-|
G --------------------------------------------------------------------------|
C --------------------------------------------------------------------------|

D ----------------------------------------------------2-3p2h3-5-6p5h6p5h6---|
A ---------------------------------------------2-3p2h3----------------------|
F --------------------------------------2-3p2h3-----------------------------|
C -----------7-9-10-13-12~-------4-5p4h5------------------------------------|
G -12-10-9-7----------------5p4h5-------------------------------------------|
C --------------------------------------------------------------------------|

D -2-3p2h3p2h3--------------------------------------------------------------|
A ------------5-6p5h6p5h6-2-3p2h3p2h3---------------------------------------|
F -----------------------------------7-8p7h8p7h8-5-7p5h7p5h7-3-5p3h5p3h5----|
C --------------------------------------------------------------------------|
G --------------------------------------------------------------------------|
C --------------------------------------------------------------------------|

D --------3*------------------------------------------9*--------|
A -----------8p7-8p7-8p7-10p7-10p7-10p7-11p7-11p7-11p7----------|
F -2b(3)b2------7---7--------7----7---------7----7--------------|
C --------------------------------------------------------------|
G --------------------------------------------------------------|
C --------------------------------------------------------------|

D-10-12-13-12-10-------------15-17-18-19b(22)b19b(22)b19--t18t17t14t17t14t11|
A---------------13-12-10----------------------------------------------------|
F-----------------------12-10-----------------------------------------------|
C---------------------------------------------------------------------------|
G---------------------------------------------------------------------------|
C---------------------------------------------------------------------------|

D -t14t10-t14ht16ht17-t14ht16ht17-t16ht17ht19-t16ht17ht19-t17ht19ht21-|
A --------------------------------------------------------------------|
F --------------------------------------------------------------------|
C --------------------------------------------------------------------|
G --------------------------------------------------------------------|
C --------------------------------------------------------------------|

D --t17ht19ht21-{t22t22t22t22---->keep-playing-into-about-the-first-3-secs-|
A ---------------------------------------------of-the-second-solo----------|
F -------------------------------------------------------------------------|
C -------------------------------------------------------------------------|
G -------------------------------------------------------------------------|
C -------------------------------------------------------------------------|

Next time, or first time you go to a Silent Civilian concert, be sure to
wear a heat resistant face mask so you dont get your face melted off with
one of their screaming kick ass solos.

Under-Solo pt.2- Guitar 1 or 2 (doesnt matter..)

D --------------------------------------------x4-------------------------|
A -----------------------------------------------------------------------|
F -----------------------------------------------------------------------|
C -0000000000000000-3333333333333333-7777777777777777-3333333333333333---|
G -0000000000000000-3333333333333333-5555555555555555-1111111111111111---|
C -0000000000000000-3333333333333333-------------------------------------|

Solo pt.2- Guitar 1 or 2

D -------------------------------------------------------------------------|
A -------------------------------------------------------------------------|
F -10p77777h10p77777h10p7h10p7h10p77777-77-10-12-12b(14)--------12b(14)b12-|
C ------------------------------------------------------12-14-10-----------|
G -------------------------------------------------------------------------|
C -------------------------------------------------------------------------|

D -------------------------------------------------------------------------|
A -------------------------------------13*--------111311-------------------|
F -14-10-12--10----------------------------101214-------1412141210910~109--|
C ---------14--12-14-10-12-8-10-7-8-5-6------------------------------------|
G -------------------------------------------------------------------------|
C -------------------------------------------------------------------------|

D ---------------------------------17-15-14-12-----------------------------|
A --------------------------------------------15-14-12-10----------10*-----|
F -10-9----------10-9*-14-121014-12----------------------12-11-9-7---------|
C -----12b(13)b12----------------------------------------------------------|
G -------------------------------------------------------------------------|
C -------------------------------------------------------------------------|

D -------------------------------------------------------------------------|
A -------------------------------------------------------------------------|
F -17p15p14p12h17p15p14p12h17p15p14p12h17p15p14p12h19p17p15p14h19p17p15p14h
C -------------------------------------------------------------------------|
G -------------------------------------------------------------------------|
C -------------------------------------------------------------------------|

D -------------------------------------------------------------------------|
A -------------------------------------------------------------------------|
F -19p17p15p14h19p17p15p14h21p19p17p15h21p19p17p15h21p19p17p15h21p19p17p15h
C -------------------------------------------------------------------------|
G -------------------------------------------------------------------------|
C -------------------------------------------------------------------------|

D -----------------------------------------------------------------------|
A ------------------------20-20b(22)b20-20-------------------------------|
F -22p21p19p17h22p21p19p17-----------------------------------------------|
C -----------------------------------------------------------------------|
G -----------------------------------------------------------------------|
C -----------------------------------------------------------------------|

D -------------------------------------------------------------------------|
A -------------------------------------------------------------------------|
F -17p15p14p12h17p15p14p12h17p15p14p12h17p15p14p12h19p17p15p14h19p17p15p14h
C -------------------------------------------------------------------------|
G -------------------------------------------------------------------------|
C -------------------------------------------------------------------------|

D -------------------------------------------------------------------------|
A -------------------------------------------------------------------------|
F -19p17p15p14h19p17p15p14h21p19p17p15h21p19p17p15h21p19p17p15h21p19p17p15h
C -------------------------------------------------------------------------|
G -------------------------------------------------------------------------|
C -------------------------------------------------------------------------|

D -----------------------------------------------------|
A -----------------------------------------------------|
F -22-19-21-17-19-15-17-14-15-12-14-10-12-9-10-10*-----|
C -----------------------------------------------------|
G -----------------------------------------------------|
C -----------------------------------------------------|

Then you play this
D ----------------------------------------------x2-------|
A -------------------------------------------------------|
F -------------------------------------------------------|
C -00-00-00-001-0000-00-001-0000-00-006-6-66-666-5-3-----|
G -00-00-00-001-0000-00-001-0000-00-006-6-66-666-5-3-----|
C -00-00-00-001-0000-00-001-0000-00-006-6-66-666-5-3-----|
   .. .. .. ..  .... .. ..  .... .. ..

Then these     []= dont play second time around ()=only play second time
D -----------------------------------------------------------------------|
A -----------------------------------------------------------------------|
F -----------------------------------------------------------------------|
C -7-8-5\7\8-7------------7-8-5\7\8-6------------7-8-5\7\8---------------|
G -5-6-3\5\6-5------------5-6-3\5\6-4------------5-6-3\5\6-9-------------|
C --0---------000-000-000--0---------000-000-000--0--------0-000-000-000-|
    .         ... ... ...  .         ... ... ...  .          ... ... ...
D ---------------------------------------|
A ---------------------------------------|
F ----------------------------------x2---|
C -7-8-5\7\8-[7-8-5-8]-(12-10-8-10)------|
G -5-6-3\5\6-[5-6-3-6]-------------------|
C --0------------------------------------|
    .

 []= dont play second time around
D ----------------------------------------------------------------------|
A ----------------------------------------------------------------------|
F ----------------------------------------------------------------------|
C -7-8-5\7\8-7------------7-8-5\7\8-6------------7-8-5\7\8-7------------|
G -5-6-3\5\6-5------------5-6-3\5\6-4------------5-6-3\5\6-5------------|
C --0---------000-000-000--0---------000-000-000--0---------000-000-000-|
    .         ... ... ...  .         ... ... ...  .         ... ... ...
D ---------------------------------------|
A ---------------------------------------|
F -----------------------------x2--------|
C -7-8-5\7\8-[7858]----------------------|
G -5-6-3\5\6-[5636]----------------------|
C --0------------------------------------|
    .

Chorus- Guitar 1
D -----------------------------------------|
A -------------------------------x2--------|
F -----------------------------------------|
C -2~--0~--10~-5-3-2~--0~--10~--13131313---|
G -2~--0~--10~-5-3-2~--0~--10~--13131313---|
C -2~--0~--10~-5-3-2~--0~--10~--13131313---|

Chorus- Guitar 2 (I think this is 80%, sounds good though)
D ---------------------------------------------------------------------|
A ---------------------------------------------------------------------|
F -------12-11-9-11-12-11--------12-11-9-14-12-11-----12-11-9-11-12-11-|
C -9-9-9-----------------10-10-10----------------9-9-9-----------------|
G ---------------------------------------------------------------------|
C ---------------------------------------------------------------------|
{} means dont play second time.
D -----------------------------------------------------------------------|
A ---------------------------------------------------------13-10-12-14}--|
F ---------12-11-9-14-12-11--12-11-9--14-11-12-{14-11-12-14--------------|
C -10-10-10--------------------------------------------------------------|
G -----------------------------------------------------------------------|
C -----------------------------------------------------------------------|

Modified Chorus- Guitar 1 []means dont play second time,instead,pickslide

D -----------------------------------------------------------------------|
A -----------------------------------------------------------------------|
F -----------------------------------------------------------------------|
C -44444444-22222222-00000000-7777-5555-44444444-22222222-[0-0-0-0-2222]-|
G -44444444-22222222-00000000-7777-5555-44444444-22222222-[0-0-0-0-2222]-|
C -44444444-22222222-00000000-7777-5555-44444444-22222222-[0-0-0-0-2222]-|

Modified Chorus- Guitar 2 [] means dont play 2nd time

D -------------------------------------------------------------------------|
A -------------------------------------------------------------------------|
F -------14-13-11-13-14-13~------14-13-16-14-13-14~------14-13-11-13-14-13-|
C -111111------------------121212------------------111111------------------|
G -------------------------------------------------------------------------|
C -------------------------------------------------------------------------|

D ------------------------------------------------------------------------|
A -------------------------------------------[-----------15-12-14-16]-----|
F -------14-13-11-16-14-13-14-13-11-16-13-14-[16-13-14-16-----------]-----|
C -121212-----------------------------------------------------------------|
G ------------------------------------------------------------------------|
C ------------------------------------------------------------------------|

Modified Verse- Guitar1+2[]means dont play second time() means only play 2nd
D --------------------------------------------------------------------------|
A ------------------------------------------------x1------------------------|
F --------------------------------------------------------------------------|
C 0----------------0------8p0h7p0h5p0h7*0-----------------0-------[88887777]|
G 000-6-5--8-6-5-6*000-6-5--------------000-6-5--8-6-5-6*-000-6-5-[88887777]|
C 000--0-00-0-0-0--000--0---------------000--0-00-0-0-0---000--0--[88887777]|
   ..  . .. . . .   ..  .                ..  . .. . . .    ..  .

D -------------------------------------------------|
A -------------------------------------------------|
F -------------------------------------------------|
C -12-10-8-10-8----8---------------000-0-000-0-0---|
G --------------12---12-10-12-10-8-000-0-000-0-0---|
C ---------------------------------000-0-000-0-0---|
                                   ... . ... .

This one took about 6 hours. It was a smow day from school. I mean, what
12 year old doesnt have 6 hours to tab something? This is a really fun one
to play, but it wasnt the funnest tab to, well, tab. I think I messed up just a little 
the solos, and the guitar 2 part for the chorus. oh well.

Well, rock on.

Email: Guitarskategood@hotmail.com
IM: dumbone247

            
            
Suggest correction
Creating personal tab
Creating personal tab
You can edit any tab online and save it as your Personal.

You can edit, replace or remove any tab part or add personal notes – all changes will be seen only by you.

Personal tabs can be accessed anytime from any device, even offline.
Learn more »
comments
print report bad tab
4 comments total. Showing first comments.
0 reply
ordinary_story 45 Mar 19, 2007 11:09 AM

not bad!! , in fact its good!!! very nice!! now tab live again!! lol. no seriously pleeze tab live again.... ur good..keep it up!!

0 reply
Td_Nights 186 Jun 08, 2007 12:02 PM

Not bad at all.

0 reply
slayerofsouls 10 Mar 21, 2008 01:28 PM

If you tab Blood red skies you will be my mo-****in hero

guest
You may want to rate the tab now too:
select rating
Wanna post a correction for this tab? Suggest correction