Oops, an error
Loading. Please wait.

Live Again tab

version 1
version 1

Whole song

Interactive

2,303 views 1 this week
2 commentsread comments
1 2 3 4 5
3 more votes to show rating
add to favorites
×
Save as Personal and add changes to this tab that will be seen only by you. Learn more ›
×
You can save this tab as Personal to edit and correct it or add notes. All changes will be seen only by you. Learn more »
launch autoscroll
font size
0
reset
how to read this tab
guitar tuner
edit
Autoscroll
slow
fast
+/-
esc
set tempo
stop
Difficulty
intermediate
Tuning: CGCFAD

INTRO/VERSE: Acoustic
:-----------------------------------------------------------------]
:-----------------------------------------------------------------]
:--10-10-10/14---9--9--9-----15--15--15---7-6---------------------]
:-0--0--0------10-10-10----17--17--17-----8-7---14-15-15h17p15p14-]
:-0------------10-10-10----17--17--17-----------0--0--0-----------]
:--------------10-10-10-------------------------------------------]

INTRO SOLO: Low Distortion
:----------------------------------------------------------------------]
:---------------------------------------------------10---10---10-13p10-]
:------10-12slow bend-12b-10-12-10-9h10p9---------12b--12b--12b--------]
:-10h12----------------------------------10/12~------------------------]
:----------------------------------------------------------------------]
:----------------------------------------------------------------------]

:------------------------------------------]
:---10---10--------------------------------]
:-12b--12b---12-10-12-10--10---------------]
:-----------------------12--12-10-10-11-12-]
:------------------------------------------]
:------------------------------------------]

:-------/13-13-15slow bend-15b-13-15-------------15-17~-]
:------/14---------------------------13h15-15-18--------]
:-Rake/15-----------------------------------------------]
:-------------------------------------------------------]
:-------------------------------------------------------]
:-------------------------------------------------------]

:-20/18-18/17-17/18-18/17-17/15-15/17-17/15-15/13-13/15-17-]
:----------------------------------------------------------]
:----------------------------------------------------------]
:----------------------------------------------------------]
:----------------------------------------------------------]
:----------------------------------------------------------]

:--------------------------------------------------------------------------]
:------------------------------------15------------------------------------]
:-10-12-14----12-14-15----14-15-17-----17-15-17-15-14-15-14-12-14-12-10-10~]
:----------x5----------x5----------x5--------------------------------------]
:--------------------------------------------------------------------------]
:--------------------------------------------------------------------------]

VERSE

CHORUS: high distortion
:------------------------------------------------------------------------]
:------------------------------------------------------------------------]
:-------------------------------------------------------9-9/10-10/12-12~-]
:-0-00-0-00-0~-----------------------------8-88-8-88-3~-x-x/x--x/-x--x---]
:-0-00-0-00-0~--14-12-10h12p10/8-8-10-8/7--8-88-8-88-3~-7-7/8--8/-10-10~-]
:-0-00-0-00-0~-----------------------------8-88-8-88-3~------------------]
    ..   ..                      . .  .      ..   ..  

:------------------------------------------------------------------------]
:------------------------------------------------------------------------]
:-------------------------------------------------------9-9/10-10/12-*12-]
:-0-00-0-00-0~-----------------------------8-88-8-88-3~-x-x/x--x/-x------]
:-0-00-0-00-0~--14-12-10h12p10/8-8-10-8/7--8-88-8-88-3~-7-7/8--8/-10-----]
:-0-00-0-00-0~-----------------------------8-88-8-88-3~------------------]
    ..   ..                      . .  .      ..   ..

:------------------------------------------------------------------------]
:------------------------------------------------------------------------]
:-------------------------------------------------------9-9/10-10/12-12~-]
:-0-00-0-00-0~-----------------------------8-88-8-88-3~-x-x/x--x/-x--x---]
:-0-00-0-00-0~--14-12-10h12p10/8-8-10-8/7--8-88-8-88-3~-7-7/8--8/-10-10~-]
:-0-00-0-00-0~-----------------------------8-88-8-88-3~------------------]
    ..   ..                      . .  .      ..   ..

:------------------------------------------------------------------]
:------------------------------------------------------------------]
:------------------------------------------------------------------]
:-0-00-0-00-0~-----------------------------------------------------]
:-0-00-0-00-0~--14-12-10h12p10/8-8-10-8/7--8-888-8-888-8-888-8-888-]
:-0-00-0-00-0~-----------------------------8-888-8-888-8-888-8-888-]
    ..   ..                      . .  .      ...   ...   ...   ...

:-------------------------------]
:-------------------------------]
:-------------------------------]
:-------------------------------]
:-7-777-7-777-10-10-10-11-11-11-]
:-7-777-7-777-10-10-10-11-11-11-]
    ...   ...  

Not complete. When i get round to it i'll tab out the rest of it, sorry..

i have videos of both solos if u need help; Go to:
Solo 1: http://www.youtube.com/watch?v=mnI_QeAY8zE
Solo 2: http://www.youtube.com/watch?v=s17uiZK1Irc
Suggest correction
Creating personal tab
Creating personal tab
You can edit any tab online and save it as your Personal.

You can edit, replace or remove any tab part or add personal notes – all changes will be seen only by you.

Personal tabs can be accessed anytime from any device, even offline.
Learn more »
Give kudos to tab author, rate the tab!
1 2 3 4 5
comments
print report bad tab
2 comments total.
0 reply
Brad Bishell 10 Aug 30, 2006 03:33 PM

Get this all tabbed out, i love this song!

0 reply
D_C1 10 Aug 10, 2009 02:33 PM

what do you mean by "Rake"?

guest
Wanna post a correction for this tab? Suggest correction