Oops, an error
Loading. Please wait.

Live Again tab

version 2
version 2

Whole song

Interactive

8,828 views 1 this week
5 commentsread comments
1 2 3 4 5
x 6
add to favorites
×
Save as Personal and add changes to this tab that will be seen only by you. Learn more ›
×
You can save this tab as Personal to edit and correct it or add notes. All changes will be seen only by you. Learn more »
launch autoscroll
font size
0
reset
how to read this tab
guitar tuner
edit
Autoscroll
slow
fast
+/-
esc
set tempo
stop
Author
Difficulty
Tuning: CGCFAD

. - palm mute
* - pinch harmonic
b - full bend
~ - vibrato
h - hammer on
p - pull off
/ - slide


INTRO/VERSE: Acoustic
:-----------------------------------------------------------------]
:-----------------------------------------------------------------]
:--10-10-10/14---9--9--9-----15--15--15---7-6---------------------]
:-0--0--0------10-10-10----17--17--17-----8-7---14-15-15h17p15p14-]
:-0------------10-10-10----17--17--17-----------0--0--0-----------]
:--------------10-10-10-------------------------------------------]

INTRO SOLO: Low Distortion
:----------------------------------------------------------------------]
:---------------------------------------------------10---10---10-13p10-]
:------10-12slow bend-12b-10-12-10-9h10p9---------12b--12b--12b--------]
:-10h12----------------------------------10/12~------------------------]
:----------------------------------------------------------------------]
:----------------------------------------------------------------------]

:------------------------------------------]
:---10---10--------------------------------]
:-12b--12b---12-10-12-10--10---------------]
:-----------------------12--12-10-10-11-12-]
:------------------------------------------]
:------------------------------------------]

:-------/13-13-15slow bend-15b-13-15-------------15-17~-]
:------/14---------------------------13h15-15-18--------]
:-Rake/15-----------------------------------------------]
:-------------------------------------------------------]
:-------------------------------------------------------]
:-------------------------------------------------------]

:-20/18-18/17-17/18-18/17-17/15-15/17-17/15-15/13-13/15-17-]
:----------------------------------------------------------]
:----------------------------------------------------------]
:----------------------------------------------------------]
:----------------------------------------------------------]
:----------------------------------------------------------]

:--------------------------------------------------------------------------]
:------------------------------------15------------------------------------]
:-10-12-14----12-14-15----14-15-17-----17-15-17-15-14-15-14-12-14-12-10-10~]
:----------x5----------x5----------x5--------------------------------------]
:--------------------------------------------------------------------------]
:--------------------------------------------------------------------------]

VERSE

CHORUS: high distortion
:------------------------------------------------------------------------]
:------------------------------------------------------------------------]
:-------------------------------------------------------9-9/10-10/12-12~-]
:-0-00-0-00-0~-----------------------------8-88-8-88-3~-x-x/x--x/-x--x---]
:-0-00-0-00-0~--14-12-10h12p10/8-8-10-8/7--8-88-8-88-3~-7-7/8--8/-10-10~-]
:-0-00-0-00-0~-----------------------------8-88-8-88-3~------------------]
    ..   ..                      . .  .      ..   ..  

:------------------------------------------------------------------------]
:------------------------------------------------------------------------]
:-------------------------------------------------------9-9/10-10/12-*12-]
:-0-00-0-00-0~-----------------------------8-88-8-88-3~-x-x/x--x/-x------]
:-0-00-0-00-0~--14-12-10h12p10/8-8-10-8/7--8-88-8-88-3~-7-7/8--8/-10-----]
:-0-00-0-00-0~-----------------------------8-88-8-88-3~------------------]
    ..   ..                      . .  .      ..   ..

:------------------------------------------------------------------------]
:------------------------------------------------------------------------]
:-------------------------------------------------------9-9/10-10/12-12~-]
:-0-00-0-00-0~-----------------------------8-88-8-88-3~-x-x/x--x/-x--x---]
:-0-00-0-00-0~--14-12-10h12p10/8-8-10-8/7--8-88-8-88-3~-7-7/8--8/-10-10~-]
:-0-00-0-00-0~-----------------------------8-88-8-88-3~------------------]
    ..   ..                      . .  .      ..   ..

:------------------------------------------------------------------]
:------------------------------------------------------------------]
:------------------------------------------------------------------]
:-0-00-0-00-0~-----------------------------------------------------]
:-0-00-0-00-0~--14-12-10h12p10/8-8-10-8/7--8-888-8-888-8-888-8-888-]
:-0-00-0-00-0~-----------------------------8-888-8-888-8-888-8-888-]
    ..   ..                      . .  .      ...   ...   ...   ...

:-------------------------------]
:-------------------------------]
:-------------------------------]
:-------------------------------]
:-7-777-7-777-10-10-10-11-11-11-]
:-7-777-7-777-10-10-10-11-11-11-]
    ...   ...  

FILL: 3:38
:-----------------------]
:-----------------------]
:-----------------------]
:-0~----------------*12-]
:-0~--let ring----------]
:-0~--------------------]

:-------------------------------------------------]
:-------------------------------------------------]
:-------------------------------------------------]
:---------------------------------------------*12-]
:-------------------------------------------------]
:-00000000000000000000--for as long as needed-----]
  ....................

:-----------------------------------------------------------]
:-----------------------------------------------------------]
:-----------------------------------------------------------]
:-------------------------------------------------0-0-0-0-0-]
:-------------------------------------------------0-0-0-0-0-]
:-00000000000000000000--for as long as needed-----0-0-0-0-0-]
  ....................                            \I WILL NOT...

3:58
:---------------------------------------------------------]
:---------------------------------------------------------]
:---------------------------------------------------------]
:-0--------------------------8---------------8------------]
:-0------------------8-10-12---12-10-8-10-12---12-10-8-10-]
:-0-0000000000000000--------------------------------------]
    ................
  \NOW!

:--------------------------------------------------------------]
:--------------------------------------------------------------]
:--------------------------------------------------------------]
:-7---------------------------10----------------10-------------]
:-7------------------10-12-13----13-12-10-12-13----13-12-10-12-]
:-7-7777777777777777-------------------------------------------]
    ................

:--------------------------------------------------------------]
:--------------------------------------------------------------]
:--------------------------------------------------------------]
:-8---------------------------12----------------12-------------]
:-8------------------12-14-15----15-14-12-14-15----15-14-12-14-]
:-8-8888888888888888-------------------------------------------]
    ................

:-------------------------------------------------------]
:-------------------------------------------------------]
:-------------------------------------------------------]
:-10------------------8----------10-8-7----7--------*12-]
:-10------------------8-----------------10---10-8-7-----]
:-10-1010101010101010-8-88888888------------------------]
     . . . . . . . .    ........

Not sure about the next part.. I'll put it on wen i figure it out. sorry!

SOLO 2: 4:58 (WITH WAH)
:----------------------------------------------------]
:----------------------------------------------------]
:------------------------14-15-17-17b-17b-17bp14-----]
:-10-12-14-15~--14-15-17-------------------------17~-]
:----------------------------------------------------]
:----------------------------------------------------]

:------------------------17-18-20-20b-20b-20b-20b-20b-20b~-]
:-------17-18~--17-18-20-----------------------------------]
:-17-19----------------------------------------------------]
:----------------------------------------------------------]
:----------------------------------------------------------]
:----------------------------------------------------------]

WAH OFF!!
:-13p10--13p10-13p10--13p10-13p10--15p12--15p12-15p12--15p12-15p12---]
:------11-----------11-----------11-----13-----------13-----------13-]
:--------------------------------------------------------------------]
:--------------------------------------------------------------------]
:--------------------------------------------------------------------]
:--------------------------------------------------------------------]\
                                                                       x2
:-17p13--17p13-17p13--17p13-17p13--18p15--18p15-18p15--18p15-18p15---]/
:------15-----------15-----------15-----17-----------17-----------17-]
:--------------------------------------------------------------------]
:--------------------------------------------------------------------]
:--------------------------------------------------------------------]
:--------------------------------------------------------------------]

:-18b-18b-18b-18b-18b-18b~-18-17-15-17-15----15---------------------------]
:-----------------------------------------18----18-15-15-17-15-17b-15-15~-]
:-------------------------------------------------------------------------]
:-------------------------------------------------------------------------]
:-------------------------------------------------------------------------]
:-------------------------------------------------------------------------]

:----------------15-17-18-------15-17-18-17-18-15-17-18-20-]
:-------15-17-18----------17-18----------------------------]
:-15-17----------------------------------------------------]
:----------------------------------------------------------]
:----------------------------------------------------------]
:----------------------------------------------------------]

:-20b-20b-20b-20b-20b-20b-20b-17-18-20-18-17~-17-18-15~---------20b-20b~-]
:-------------------------------------------------------17b-15-----------]
:------------------------------------------------------------------------]
:------------------------------------------------------------------------]
:------------------------------------------------------------------------]
:------------------------------------------------------------------------]

sorry but i cant figure out the sweeping bit... you will have to improvise!

Enjoy my tabs and rate my videos! thank you!

i have videos of both solos if u need help; Go to:
Solo 1: http://www.youtube.com/watch?v=mnI_QeAY8zE
Solo 2: http://www.youtube.com/watch?v=s17uiZK1Irc

            
            
Suggest correction
Creating personal tab
Creating personal tab
You can edit any tab online and save it as your Personal.

You can edit, replace or remove any tab part or add personal notes – all changes will be seen only by you.

Personal tabs can be accessed anytime from any device, even offline.
Learn more »
comments
print report bad tab
5 comments total. Showing first comments.
0 reply
seanius 628 Sep 02, 2006 01:42 PM

i maybe wrong but i think the acoustic part is totally wrong...the way i start it is

- 6 6 6
- 10 5 5 5
- 10 10 10 10
-0 0 0 0 5 5 5
- 3 3 3
-

0 reply
seanius 628 Sep 02, 2006 01:42 PM

ok that didnt come out like it shoud have damit...il tab the intro and put it up instead

0 reply
brythepie 31 Sep 03, 2006 03:16 AM

thats ok because the way i play it sounds exactly like the real song. if u can play it differently put the tabs up and it will all be good. people will have to choose.
thanks for the interest.

bry

guest
You may want to rate the tab now too:
select rating
Wanna post a correction for this tab? Suggest correction