Oops, an error
Loading. Please wait.

Rebirth Of The Temple tab

version 1
version 1

Whole song

Interactive

8,130 views 1 this week
4 commentsread comments
1 2 3 4 5
x 11
add to favorites
×
Save as Personal and add changes to this tab that will be seen only by you. Learn more ›
×
You can save this tab as Personal to edit and correct it or add notes. All changes will be seen only by you. Learn more »
launch autoscroll
font size
0
reset
how to read this tab
guitar tuner
edit
Autoscroll
slow
fast
+/-
esc
set tempo
stop
Intro (Guitar 1)

D|-------------------------------------------------------------|
A|-------------------------------------------------------------|
F|-------------------------------------------------------------|
C|-------------------------------------------------------------|
G|-0---8---7---8---7---8---7h8---8---8---7---8---7---8---7h8---|
C|-0-0---0---0---0---0---0-----0-8-8---8---8---8---8---8-----8-|
PM   .   .   .   .   .   .     .   .   .   .   .   .   .     .

Intro (Guitar 1) cont.

D|----------------------------------------------------------|
A|----------------------------------------------------------|
F|----------------------------------------------------------|
C|----------------------------------------------------------|
G|-5---8---7---8---7---8---7h8---7---8---7h8---8-8----10-10-|
C|-5-5---5---5---5---5---5-----5-7-7---7-----8-8-8-10-10-10-|
PM   .   .   .   .   .   .     .   .   .     .      .

Intro (Guitar 2)

D|-------------------------------------------------------------|
A|-------------------------------------------------------------|
F|-------------------------------------------------------------|
C|-------------------------------------------------------------|
G|-0-----------------------------8-------------------------8-8-|
C|-0-----------------------------8-------------------------8-8-|

Intro (Guitar 2) cont.
D|-----------------------------------------------------------|
A|-----------------------------------------------------------|
F|-----------------------------------------------------------|
C|-----------------------------------------------------------|
G|-5-----------------------------7--------------8-8----10-10-|
C|-5-----------------------------7------------8-8-8-10-10-10-|
PM                                            .      .

When the 2nd guitar comes in full time it plays the exact thing the 1st guitar is 
in the intro. Then it harmonizes in Diatonic Thirds...

Intro (Guitar 2) harmony

D|-------------------------------------------------------------|
A|-------------------------------------------------------------|
F|-------------------------------------------------------------|
C|-----7---5---7---5---7---5h7-------7---5---7---5---7---5h7---|
G|-0-----------------------------8-----------------------------|
C|-0-0---0---0---0---0---0-----0-8-8---8---8---8---8---8-----8-|
PM   .   .   .   .   .   .     .   .   .   .   .   .   .     .

Intro (Guitar 2) harmony cont.

D|----------------------------------------------------------|
A|----------------------------------------------------------|
F|----------------------------------------------------------|
C|-----7---5---7---5---7---5h7-------7---5h7----------------|
G|-5-----------------------------7-------------8-8----10-10-|
C|-5-5---5---5---5---5---5-----5-7-7---7-----8-8-8-10-10-10-|
PM   .   .   .   .   .   .     .   .   .     .      .

Solo 1(Guitar 3)

Sorry no solos yet!

Fill 1 (Both Guitars)

D|-----------------|
A|-----------------|
F|-----------------|
C|-----------------|
G|-0-------------0-|
C|-0-0-0-0-0-0-0-0-|
PM   . . . . . .

Verse 1 (Both Guitars)

Here are the chords. It's very simple, you can figure out the strumming pattern, it's 
that hard...

D|------------------|
A|------------------|
F|------------------|
C|-0----1----4----3-|
G|-0----1----4----3-|
C|-0----1----4----3-|

Pre-Chorus (Both Guitar)

D|-------------|
A|-------------|
F|-------------|
C|-3-3-3-3-3-3-|
G|-3-3-3-3-3-3-|
C|-3-3-3-3-3-3-|
PM . . . . . .

Chorus (Both Guitars)

D|-----------------------------------------------------------------|
A|-----------------------------------------------------------------|
F|--------------------------------------------12--10--10--9--9--10-|
C|-8-8-8-8-8-8-8-3-3-3-3-3-3-3-0-0-0-0-0-0-0--x---x---x---x--x--x--| x2
G|-8-8-8-8-8-8-8-3-3-3-3-3-3-3-0-0-0-0-0-0-0--10--8---8---7--7--8--|
C|-8-8-8-8-8-8-8-3-3-3-3-3-3-3-0-0-0-0-0-0-0-----------------------|

D|-----------------------------------------------------------------|
A|-----------------------------------------------------------------|
F|--------------------------------------------12--10--10--9--9--10-|
C|-8-8-8-8-8-8-8-3-3-3-3-3-3-3-0-------0------x---x---x---x--x--x--|
G|-8-8-8-8-8-8-8-3-3-3-3-3-3-3-0--0-0--0------10--8---8---7--7--8--|
C|-8-8-8-8-8-8-8-3-3-3-3-3-3-3-0--0-0--0---------------------------|
PM                                . .

D|-----------------------------|
A|-----------------------------|
F|-----------------------------|
C|-8-8-8-8-8-8-8-3-3-3-3-3-3-3-|
G|-8-8-8-8-8-8-8-3-3-3-3-3-3-3-|
C|-8-8-8-8-8-8-8-3-3-3-3-3-3-3-|

Then play Fill 1...Then play the first half of Verse 1 and then this...

Verse 2 (Both Guitars)

D|-----------------------------|
A|-----------------------------|
F|-----------------------------|
C|-0-----0-------0-----1--4--3-|
G|-0--0--0----0--0--0--1--4--3-|
C|-0--0--0----0--0--0--1--4--3-|
PM    .       .     .

Then the Pre-Chorus...Then the Chorus...Then this...

Fill 2 (Both Guitar)

D|---------------------|
A|---------------------|
F|---------------------|
C|---------------------|
G|---------------------|
C|-0000-0000-0000-0000-|
PM .... .... .... ....

Interlude(Both Guitars)

D|-----------------------|
A|-----------------------|
F|-----------------------|
C|-----------------------| x3
G|-0------------------8\-|
C|-0-0--0--0-0--0-0-0-8\-|
PM   .  .  . .  . . .

Interlude Harmony (Guitar 1)

D|-----------------------------|
A|-----------------------------|
F|-----------------------------|
C|-----------------------------|
G|-5---(8)~--7---10---8-7-(8)~-|
C|-----------------------------|

Interlude Harmony (Guitar 2)

D|-------------------------------|
A|-------------------------------|
F|-------------------------------|
C|-------------------------------|
G|-8---12~--10---13---12-10-(8)~-|
C|-------------------------------|

Then a pick slide in to the solo, but this is all I have people. I don't have any of the 
solo breaks. I'm working on them though and will have them up pretty soon!

            
            
Suggest correction
Creating personal tab
Creating personal tab
You can edit any tab online and save it as your Personal.

You can edit, replace or remove any tab part or add personal notes – all changes will be seen only by you.

Personal tabs can be accessed anytime from any device, even offline.
Learn more »
comments
print report bad tab
4 comments total. Showing first comments.
0 reply
crazymettal666 10 Jul 11, 2006 10:34 AM

dude if u could tab out The Song Remains Un-Named that would be awsome, awsome tab

0 reply
crazymettal666 10 Jul 11, 2006 10:41 AM

on the intro i think its easier to play 3 and 2 on the c sring because its hard to palm mute the low c string with out muting th g string

0 reply
hethamulburton 90 Jul 11, 2006 05:03 PM

There are 2 versions of this song's solo, the one recorded with the actual album and video, and then I guess I had the demo version before. I was gonna post the solo, but yea it's wrong because I had it for the demo version, which is amazingly easy compared to what they put on there for the real version.

guest
Wanna post a correction for this tab? Suggest correction