Oops, an error
Loading. Please wait.

Song Remains Un-Named tab

version 2
version 2

Whole song

Interactive

5,571 views 6 this week
9 commentsread comments
1 2 3 4 5
x 6
add to favorites
×
Save as Personal and add changes to this tab that will be seen only by you. Learn more ›
×
You can save this tab as Personal to edit and correct it or add notes. All changes will be seen only by you. Learn more »
launch autoscroll
font size
0
reset
how to read this tab
guitar tuner
edit
Autoscroll
slow
fast
+/-
esc
set tempo
stop
Author
Difficulty
----------------------------------------------------------------------------
                   the song remains un-Named - silent civilian             
---------------------------------------------------------------------------
Tabbed by: sean crow
Email: die_for_nothing_323@hotmail.com

Tuning: this version is DAGBe     (actual song CGCFAd)

                  It is finally here UG goers,  "the song re-mains
                    un-named" has finally been tabbed..BY ME!! I heard
                      your prayers and i answered them so here it is enjoy!

PLEASE RATE AND COMMENT ON THIS ONE!!!!  This intro is the hardest thing
                                           ive tried to tab ever!!

e|----------------------------------------------------------|-----------|  
B|----------------------------------------------------------|           | 
G|----7-8-7h8p7-5------------------5-3-2h3p3-0-------0-2-3-5|  For ease |
D|-55-------------8-7-5---5-7-8-00-------------3-2-3--------| ---   -3- |
A|-55-------------------8-------00--------------------------| -8- = --- |
E|-55---------------------------00--------------------------| ---   --- |
                                                                        |
e|---------------------------------------|     Play this first part     |
B|-----------3*--------------------------|      3times  (hardest part)  |
G|---------------------------------------|                              |
D|-11-/3-2-3----3-2-3-0---22---33--------|   * pinch harmonic not the   |
A|-11---------------------22-2-33-3------|        correct not though    |
D|-11-------------------0-22-2-33-3------|------------------------------| 
                        .    .    .
e|---------------------------------------------------------|----------|
B|---------------------------------------------------------|          |
G|---------------------------------------------------------|          |
D|-0-------------9\7--10---9\7-0-------------7\5---8--7\5--|          |
A|-0-------------7\5---8---7\5-0-------------5\3---6--5\3--|          | 
D|-0-0-000-0-000-----0---0-----0-0-000-0-000-----0---0-----|  PLAY    | 
     . ... . ...     .   .       . ... . ...     .   .          2X    |
e|---------------------------------------------------------|          |
B|---------------------------------------------------------|          |
G|---------------------------------------------------------|          |
D|-0-------------9\7--10---9\7-0-------------7\5---8-8-----|          |
A|-0-------------7\5---8---7\5-0-------------5\3---6-6-----|          | 
D|-0-0-000-0-000-----0---0-----0-0-000-0-000-----0---------|----------|
     . ... . ...     .   .       . ... . ...     

e|-----------------------|
B|-----------------------|
G|-------------77777777--|
D|-0~~-2~~-3~~-77777777--| Play 2x
A|-0~~-2~~-3~~-55555555--|
D|-0~~-2~~-3~~-----------|

e|----------------------------------------------------------------|
B|----------------------------------------------------------------|
G|----------------------------------------------------------------| Play
D|---------------------------------(x3)--------------------77777--|   2x
A|---5---7---8---3---5---7---5---7---------5---7---8---3---55555--|
D|-0---0---0---0---0---0---0---0---------0---0---0---0---0--------|
   .   .   .   .   .   .   .   .         .   .   .   .   .
e|------------------------------------------------|
B|------------------------------------------------|
G|------------------------------------------------|
D|-0-------5h7p5h7p5h7-3h5p3h5p3h5---------3~~/-\-|
A|-0-(x12)--------------------------(X4)---3~~/-\-|
D|-0---------------------------------------3~~/-\-|
   .
e|----------------------------------------------------------|--------------|
B|----------------------------------------------------------|   Play 2x    |
G|-------------------------------------------------------------------------|
D|-0-0----2---3---5--0----2---3---5--0----2---3---6--0---------7-8-10-12-10|
A|-0-0x10-2---3---5--0x10-2---3---5--0x10-2---3---6--0x6-7-8-10------------|
D|-0-0----2-0-3-0-5--0----2-0-3-0-5--0----2-0-3-0-6--0---------------------|
     .      .   .    .      .   .    .      .   .    .
e|---------------------------|
B|---------------------------|
G|---------------------------|
D|-55---00---11---33---44----|   Play 2x
A|-55---00---11---33-3-44-4--|
D|-55---00---11---33-3-44-4--|
                     .    . 
e|----------------------------------------------------------| 
B|----------------------------------------------------------|   
G|----7-8-7h8p7-5------------------5-3-2h3p3-0-------0-2-3-5| 
D|-55-------------8-7-5---5-7-8-00-------------3-2-3--------| 
A|-55-------------------8-------00--------------------------|  
E|-55---------------------------00--------------------------| 

e|---------------------------------------|
B|-----------3*--------------------------|
G|---------------------------------------|
D|-11-/3-2-3----3-2-3-0---22---33--------|
A|-11---------------------22-2-33-3------|
D|-11-------------------0-22-2-33-3------|
                        .    .    .
e|---------------------------------------------------------|----------|
B|---------------------------------------------------------|          |
G|---------------------------------------------------------|          |
D|-0-------------9\7--10---9\7-0-------------7\5---8--7\5--|          |
A|-0-------------7\5---8---7\5-0-------------5\3---6--5\3--|          | 
D|-0-0-000-0-000-----0---0-----0-0-000-0-000-----0---0-----|  PLAY    | 
     . ... . ...     .   .       . ... . ...     .   .          2X    |
e|---------------------------------------------------------|          |
B|---------------------------------------------------------|          |
G|---------------------------------------------------------|          |
D|-0-------------9\7--10---9\7-0-------------7\5---8-8-----|          |
A|-0-------------7\5---8---7\5-0-------------5\3---6-6-----|          | 
D|-0-0-000-0-000-----0---0-----0-0-000-0-000-----0---------|----------|
     . ... . ...     .   .       . ... . ...   

      The solo starts here but the backing is hard to figure
        out (in fact i couldnt here it for a while) so the backing
          starts later in the solo!! And i cant tab solo's yet!!

e|--------------------------| 
B|--------------------------|
G|--------------------------|  This is the only backing i could here
D|-0~~-3~~-6~~-10-8-7-------|     Play 4x
A|-0~~-3~~-6~~--------10----|
D|-0~~-3~~-6~~--------------|

e|-----------------------|
B|-----------------------|
G|-------------77777777--|
D|-0~~-2~~-3~~-77777777--| 
A|-0~~-2~~-3~~-55555555--|
D|-0~~-2~~-3~~-----------|

e|----------------------------------------------------------------|
B|----------------------------------------------------------------|
G|----------------------------------------------------------------| Play
D|---------------------------------(x3)--------------------77777--|   2x
A|---5---7---8---3---5---7---5---7---------5---7---8---3---55555--|
D|-0---0---0---0---0---0---0---0---------0---0---0---0---0--------|
   .   .   .   .   .   .   .   .         .   .   .   .   .
e|---------------------------------------------|
B|---------------------------------------------|
G|---------------------------------------------|
D|-0-------5h7p5h7p5h7-3h5p3h5p3h5---------3~~-|
A|-0-(x12)--------------------------(X4)---3~~-|
D|-0---------------------------------------3~~-|

e|----------------------------------------------------------|--------------|
B|----------------------------------------------------------|   Play 2x    |
G|-------------------------------------------------------------------------|
D|-0-0----2---3---5--0----2---3---5--0----2---3---6--0---------7-8-10-12-10|
A|-0-0x10-2---3---5--0x10-2---3---5--0x10-2---3---6--0x6-7-8-10------------|
D|-0-0----2-0-3-0-5--0----2-0-3-0-5--0----2-0-3-0-6--0---------------------|
     .      .   .    .      .   .    .      .   .    .
e|---------------------------|
B|---------------------------|
G|---------------------------|
D|-55---00---11---33---44----|   Play 2x
A|-55---00---11---33-3-44-4--|
D|-55---00---11---33-3-44-4--|
                     .    . 
e|----------------------------------------------------------|-----------|  
B|----------------------------------------------------------|           | 
G|----7-8-7h8p7-5------------------5-3-2h3p3-0-------0-2-3-5|           |
D|-55-------------8-7-5---5-7-8-00-------------3-2-3--------|           |
A|-55-------------------8-------00--------------------------|           |
E|-55---------------------------00--------------------------|           |
                                                                        |
e|---------------------------------------|     Play                     |
B|-----------3*--------------------------|        4times                |
G|---------------------------------------|                              |
D|-11-/3-2-3----3-2-3-0---22---33--------|   * pinch harmonic not the   |
A|-11---------------------22-2-33-3------|        correct not though    |
D|-11-------------------0-22-2-33-3------|------------------------------| 
                        .    .    .
e|------|
B|------|
G|------|  THE END!!!
D|-55\--|
A|-55\--|          I would appreciate on this one please (good or bad)!!
D|-55\--|       
Suggest correction
Creating personal tab
Creating personal tab
You can edit any tab online and save it as your Personal.

You can edit, replace or remove any tab part or add personal notes – all changes will be seen only by you.

Personal tabs can be accessed anytime from any device, even offline.
Learn more »
comments
print report bad tab
9 comments total. Showing first comments.
0 reply
Silent_gojira 102 Aug 29, 2006 03:20 PM

Seanius you rock!

-1 reply
seanius 628 Aug 30, 2006 11:25 AM

why thank you

0 reply
Brad Bishell 10 Aug 30, 2006 03:32 PM

Dude the tabs should be in Drop C, Drop your guitar down to C then play this tab.

Then is it correct.

guest
You may want to rate the tab now too:
select rating
Wanna post a correction for this tab? Suggest correction