Oops, an error
Loading. Please wait.

Wrath tab

version 1
version 1

Whole song

Interactive

4,473 views 1 this week
4 commentsread comments
1 2 3 4 5
x 9
add to favorites
×
Save as Personal and add changes to this tab that will be seen only by you. Learn more ›
×
You can save this tab as Personal to edit and correct it or add notes. All changes will be seen only by you. Learn more »
launch autoscroll
font size
0
reset
how to read this tab
guitar tuner
edit
Autoscroll
slow
fast
+/-
esc
set tempo
stop
Please Rate, This is the whole song song including the awesome solo.  Everything after 
solo and the little solo at the end can be done by someone else.  Unless I find time on 
side to edit it.

P.S. I'm open to corrections, email me

Enjoi

Artist - Silent Civilian
Song - Wrath
Album - Rebirth Of The Temple
Duration - 5:53
Tuning - Drop C (CGCFAD)

Intro: (0:00)
 |Guitar 1:                                                                      |
D|-------------------------------------------------------------------------------|
A|-------------------------------------------------------------------------------|
F|-------------------------------------------------------------------------------|
C|-------------------------------------------------------------------------------|
G|---3----5----8----7---10----8---12---10----8---10p8------7----8p7----5----7h8--|
C|-0---0----0----0----0----0----0----0----0----0-------00----0-------0---0-------|
 |Guitar 2:                                                                      |
D|-------------------------------------------------------------------------------|
A|-------------------------------------------------------------------------------|
F|-------------------------------------------------------------------------------|
C|-0~----------------------------------------------------------------------------|
G|-0~----------------------------------------------------------------------------|
C|-0~----------------------------------------------------------------------------|

 |Guitar 1:                                                                      |
D|-------------------------------------------------------------------------------|
A|-------------------------------------------------------------------------------|
F|-------------------------------------------------------------------------------|
C|-------------------------------------------------------------------------------|
G|---3----5----8----7---10----8---12---10----8---10p8------7----8p7----5----7h8--|
C|-0---0----0----0----0----0----0----0----0----0-------00----0-------0---0-------|
 |Guitar 2:                                                                      |
D|-------------------------------------------------------------------------------|
A|-------------------------------------------------------------------------------|
F|-------------------------------------------------------------------------------|
C|-------------------------------------------------------------------------------|
G|------------------------------------------12---13p12----10---12p10---8---10h12-|
C|---------------------------------------------0-------00----0-------0---0-------|

 |Guitar 1:                                                                      |
D|-------------------------------------------------------------------------------|
A|-------------------------------------------------------------------------------|
F|-------------------------------------------------------------------------------|
C|-------------------------------------------------------------------------------|
G|---3----5----8----7---10----8---12---10----8---10p8------7----8p7----5----7h8--|
C|-0---0----0----0----0----0----0----0----0----0-------00----0-------0---0-------|
 |Guitar 2:                                                                      |
D|-------------------------------------------------------------------------------|
A|-------------------------------------------------------------------------------|
F|-------------------------------------------------------------------------------|
C|-------------------------------------------------------------------------------|
G|---8---10---12---10---13---12---15---13---12---13p12----10---12p10---8---10h12-|
C|-0---0----0----0----0----0----0----0----0----0-------00----0-------0---0-------|
(x4)

Verse: (0:32)
 |Guitar 1:                                                                      |
D|-------------------------------------------------------------------------------|
A|-------------------------------------------------------------------------------|
F|-------------------------------------------------------------------------------|
C|-0-0--0-0-0----------0-0--0-0-0-7-5------8-8-8-8---8-8-8-8--5-5-5-5--7-7--8-8--|
G|-0-0--0-0-0-5-8-7-5--0-0--0-0-0-----8-7--8-8-8-8-7-8-8-8-8--5-5-5-5--7-7--8-8--|
C|-0-0--0-0-0----------0-0--0-0-0----------8-8-8-8---8-8-8-8--5-5-5-5--7-7--8-8--|
 |Guitar 2:                                                                      |
D|-------------------------------------------------------------------------------|
A|-------------------------------------------------------------------------------|
F|-------------------------------------------------------------------------------|
C|-------------------------------------------------------------------------------|
G|---------------------------------------------------------------------12b13r12--|
C|-------------------------------------------------------------------------------|

 |Guitar 1:                                                                      |
D|-------------------------------------------------------------------------------|
A|-------------------------------------------------------------------------------|
F|-------------------------------------------------------------------------------|
C|-0-0--0-0-0----------0-0--0-0-0-7-5------8-8-8-8---8-8-8-8--5-5-5-5--7-7--8-8--|
G|-0-0--0-0-0-5-8-7-5--0-0--0-0-0-----8-7--8-8-8-8-7-8-8-8-8--5-5-5-5--7-7--8-8--|
C|-0-0--0-0-0----------0-0--0-0-0----------8-8-8-8---8-8-8-8--5-5-5-5--7-7--8-8--|
 |Guitar 2:                                                                      |
D|-------------------------------------------------------------------------------|
A|-------------------------------------------------------------------------------|
F|-------------------------------------------------------------------------------|
C|-----------------------------------------\\\\\\\\\\\\\\\\\\\\\\\\\\\\\\\\\\\\\-|
G|-----------------------------------------\\\\\\\\\\\\\Pick Slide\\\\\\\\\\\\\\-|
C|-----------------------------------------\\\\\\\\\\\\\\\\\\\\\\\\\\\\\\\\\\\\\-|

(0:43)
 |Guitar 1:                                                                      |
D|-------------------------------------------------------------------------------|
A|-------------------------------------------------------------------------------|
F|-------------------------------------------------------------------------------|
C|-0-0--0-0-0----------0-0--0-0-0-7-5------8-8-8-8---8-8-8-8--5-5-5-5--7-7--8-8--|
G|-0-0--0-0-0-5-8-7-5--0-0--0-0-0-----8-7--8-8-8-8-7-8-8-8-8--5-5-5-5--7-7--8-8--|
C|-0-0--0-0-0----------0-0--0-0-0----------8-8-8-8---8-8-8-8--5-5-5-5--7-7--8-8--|
 |Guitar 2:                                                                      |
D|-------------------------------------------------------------------------------|
A|-------------------------------------------------------------------------------|
F|-------------------------------------------------------------------------------|
C|-0-0--0-0-0---7-5----0-0--0-0-0-8-7-5----8-8-8-8-7-8-8-8-8--5-5-5-5--7-7--8-8--|
G|-0-0--0-0-0-8-----8--0-0--0-0-0-------7--8-8-8-8---8-8-8-8--5-5-5-5--7-7--8-8--|
C|-0-0--0-0-0----------0-0--0-0-0----------8-8-8-8---8-8-8-8--5-5-5-5--7-7--8-8--|
(x6)

Pre-Chorus: (1:14)
 |Both Guitars:                                                                  |
D|-------------------------------------------------------------------------------|
A|-------------------------------------------------------------------------------|
F|-------------------------------------------------------7-----------------------|
C|-7-7-7---------10-8--7-----7------------8-8-8-------------10-8--10-8--7--------|
G|-7-7-7---8-7-----------10----10--8--7---8-8-8---10-8---------------------10-8--|
C|-7-7-7----------------------------------8-8-8----------------------------------|

 |Both Guitars:                                                                  |
D|-------------------------------------------------------------------------------|
A|-------------------------------------------------------------------------------|
F|----------------------------------------------------------------------9b10r9-7-|
C|-7-7-7---------10-8--7-----7------------8-8-8--------------------7-8-----------|
G|-7-7-7---8-7-----------10----10--8--7---8-8-8---10-8--------7-8----------------|
C|-7-7-7----------------------------------8-8-8----------7-8---------------------|

Chorus: (1:26)
 |Both Guitars:                                                                  |
D|-------------------------------------------------------------------------------|
A|-------------------------------------------------------------------------------|
F|-------------------------------------------------------------------------------|
C|-0~---------------3~---------------8~---------------7~--------10~-----11~------|
G|-0~---------------3~---------------8~---------------7~--------10~-----11~------|
C|-0~---------------3~---------------8~---------------7~--------10~-----11-------|
(x2)

(1:48)
 |Guitar 1:                                                                      |
D|-------------------------------------------------------------------------------|
A|-------------------------------------------------------------------------------|
F|-------------------------------------------------------------------------------|
C|---------------0-0---0-0-0-----------------0-0-0---0-0-0-----------------------|
G|---------------0-0---0-0-0-----------------0-0-0---0-0-0-----------------------|
C|---------------0-0---0-0-0-----------------0-0-0---0-0-0-----------------------|
 |Guitar 2:                                                                      |
D|-------------------------------------------------------------------------------|
A|-------------------------------------------------------------------------------|
F|-------------------------------------------------------------------------------|
C|-0-0---0-0-0-----------------0-0---0-0-0---0-0-0---0-0-0-----------------------|
G|-0-0---0-0-0-----------------0-0---0-0-0---0-0-0---0-0-0-----------------------|
C|-0-0---0-0-0-----------------0-0---0-0-0---0-0-0---0-0-0-----------------------|

Repeat Verse (1:51)
(x6)
Repeat Pre-Chorus (2:22)
Repeat Chorus (2:34)
(x2)

Bidge (2:56)
 |Guitar 1:                                                                      |
D|-------------------------------------------------------------------------------|
A|-------------------------------------------------------------------------------|
F|-------------------------------------------------------------------------------|
C|-0~----------------------------------------------------------------------------|
G|-0~----------------------------------------------------------------------------|
C|-0~----------------------------------------------------------------------------|
 |Guitar 2:                                                                      |
D|-------------------------------------------------------------------------------|
A|-------------------------------------------------------------------------------|
F|-----------------10-10-10-10--9-9-7-7-----------------14-14-14-14--12-12-10-10-|
C|-0-0-0-0-0-0-0-0--x--x--x--x--x-x-x-x-0-0-0-0-0-0-0-0--x--x--x--x---x--x--x--x-|
G|-0-0-0-0-0-0-0-0--8--8--8--8--7-7-5-5-0-0-0-0-0-0-0-0-12-12-12-12--10-10--8--8-|
C|-0-0-0-0-0-0-0-0----------------------0-0-0-0-0-0-0-0--------------------------|

 |Guitar 1:                                                                      |
D|-------------------------------------------------------------------------------|
A|-------------------------------------------------------------------------------|
F|-------------------------------------------------------------------------------|
C|-8~-----------------------------------5~---------------7~-----------8~---------|
G|-8~-----------------------------------5~---------------7~-----------8~---------|
C|-8~-----------------------------------5~---------------7~-----------8~---------|
 |Guitar 2:                                                                      |
D|-------------------------------------------------------------------------------|
A|-------------------------------------------------------------------------------|
F|------------------9-9-9-9------------------------------------------------------|
C|-8-8-8-8-8-8-8-8--x-x-x-x--7*---------5~---------------7~-----------8~---------|
G|-8-8-8-8-8-8-8-8--7-7-7-7-------------5~---------------7~-----------8~---------|
C|-8-8-8-8-8-8-8-8----------------------5~---------------7~-----------8~---------|

 |Both Guitars:                                                                  |
D|-------------------------------------------------------------------------------|
A|-------------------------------------------------------------------------------|
F|-----------------10-10-10-10--9-9-7-7-----------------14-14-14-14--12-12-10-10-|
C|-0-0-0-0-0-0-0-0--x--x--x--x--x-x-x-x-0-0-0-0-0-0-0-0--x--x--x--x---x--x--x--x-|
G|-0-0-0-0-0-0-0-0--8--8--8--8--7-7-5-5-0-0-0-0-0-0-0-0-12-12-12-12--10-10--8--8-|
C|-0-0-0-0-0-0-0-0----------------------0-0-0-0-0-0-0-0--------------------------|


 |Guitar 1:                                                                      |
D|-------------------------------------------------------------------------------|
A|-------------------------------------------------------------------------------|
F|------------------9-9-9-9-14-14-14-14------------------------------------------|
C|-8-8-8-8-8-8-8-8--x-x-x-x--x--x--x--x------------------------------------------|
G|-8-8-8-8-8-8-8-8--7-7-7-7-12-12-12-12-------------------------------5*---------|
C|-8-8-8-8-8-8-8-8---------------------------------------------------------------|
 |Guitar 2:                                                                      |
D|-------------------------------------------------------------------------------|
A|-------------------------------------------------------------------------------|
F|-------------------------------------------------------------------------------|
C|-8~-----------------------------------5~---------------7~-----------8~---------|
G|-8~-----------------------------------5~---------------7~-----------8~---------|
C|-8~-----------------------------------5~---------------7~-----------8~---------|

Solo Rythym (3:17)
 |Guitar 2:                                                                      |
D|-------------------------------------------------------------------------------|
A|-------------------------------------------------------------------------------|
F|-----------------10-10-10-10--9-9-7-7-----------------14-14-14-14--12-12-10-10-|
C|-0-0-0-0-0-0-0-0--x--x--x--x--x-x-x-x-0-0-0-0-0-0-0-0--x--x--x--x---x--x--x--x-|
G|-0-0-0-0-0-0-0-0--8--8--8--8--7-7-5-5-0-0-0-0-0-0-0-0-12-12-12-12--10-10--8--8-|
C|-0-0-0-0-0-0-0-0----------------------0-0-0-0-0-0-0-0--------------------------|
 |Guitar 2:                                                                      |
D|-------------------------------------------------------------------------------|
A|-------------------------------------------------------------------------------|
F|------------------9-9-9-9-14-14-14-14------------------------------------------|
C|-8-8-8-8-8-8-8-8--x-x-x-x--x--x--x--x-5~---------------7~-----------8~---------|
G|-8-8-8-8-8-8-8-8--7-7-7-7-12-12-12-12-5~---------------7~-----------8~---------|
C|-8-8-8-8-8-8-8-8----------------------5~---------------7~-----------8~---------|
(x4)

SOLO: (3:17)
 |Guitar 1:                                                                      |
D|--------------------------------------------10-12h13p12p10----10---------------|
A|--------8-10~--10-8----8-----------------10----------------13----11--10-11-11--|
F|-7-9-10-------------10---10-7-10-7----7~---------------------------------------|
C|-----------------------------------10------------------------------------------|
G|-------------------------------------------------------------------------------|
C|-------------------------------------------------------------------------------|
 |Guitar 2:                                                                      |
D|-------------------------------------------------------------------------------|
A|-------------------------------------------------------------------------------|
F|-----------------10-10-10-10--9-9-7-7-----------------14-14-14-14--12-12-10-10-|
C|-0-0-0-0-0-0-0-0--x--x--x--x--x-x-x-x-0-0-0-0-0-0-0-0--x--x--x--x---x--x--x--x-|
G|-0-0-0-0-0-0-0-0--8--8--8--8--7-7-5-5-0-0-0-0-0-0-0-0-12-12-12-12--10-10--8--8-|
C|-0-0-0-0-0-0-0-0----------------------0-0-0-0-0-0-0-0--------------------------|

 |Guitar 1:                                                                      |
D|-------------------------------------------------------------------------------|
A|-10-10h11p10-------------------------------------------------------------------|
F|--------------12-12h14p12--10-10h12p10--9-9h10p9---10----10/12--12/14----14----|
C|-------------------------------------------------------------------------------|
G|-------------------------------------------------------------------------------|
C|-------------------------------------------------------------------------------|
 |Guitar 2:                                                                      |
D|-------------------------------------------------------------------------------|
A|-------------------------------------------------------------------------------|
F|------------------9-9-9-9-14-14-14-14------------------------------------------|
C|-8-8-8-8-8-8-8-8--x-x-x-x--x--x--x--x-5~---------------7~-----------8~---------|
G|-8-8-8-8-8-8-8-8--7-7-7-7-12-12-12-12-5~---------------7~-----------8~---------|
C|-8-8-8-8-8-8-8-8----------------------5~---------------7~-----------8~---------|

 |Guitar 1:                                                                      |
D|-------12--13--14b15r14-------12--13--14b15r14-------12--13--14b15r14-12-------|
A|---15---------------------15---------------------15------------------------15--|
F|-------------------------------------------------------------------------------|
C|-------------------------------------------------------------------------------|
G|-------------------------------------------------------------------------------|
C|-------------------------------------------------------------------------------|
 |Guitar 2:                                                                      |
D|-------------------------------------------------------------------------------|
A|-------------------------------------------------------------------------------|
F|-----------------10-10-10-10--9-9-7-7-----------------14-14-14-14--12-12-10-10-|
C|-0-0-0-0-0-0-0-0--x--x--x--x--x-x-x-x-0-0-0-0-0-0-0-0--x--x--x--x---x--x--x--x-|
G|-0-0-0-0-0-0-0-0--8--8--8--8--7-7-5-5-0-0-0-0-0-0-0-0-12-12-12-12--10-10--8--8-|
C|-0-0-0-0-0-0-0-0----------------------0-0-0-0-0-0-0-0--------------------------|

 |Guitar 1:                                                                      |
D|----------------------------------1213-15b17r15-15-15b17r15-15p13p12-12--------|
A|--------------------------------15-------------------------------------15131515|
F|-14h15p14-14-14h15p14p12--12-14*-----------------------------------------------|
C|------------------------15-----------------------------------------------------|
G|-------------------------------------------------------------------------------|
C|-------------------------------------------------------------------------------|
 |Guitar 2:                                                                      |
D|-------------------------------------------------------------------------------|
A|-------------------------------------------------------------------------------|
F|------------------9-9-9-9-14-14-14-14------------------------------------------|
C|-8-8-8-8-8-8-8-8--x-x-x-x--x--x--x--x-5~---------------7~-----------8~---------|
G|-8-8-8-8-8-8-8-8--7-7-7-7-12-12-12-12-5~---------------7~-----------8~---------|
C|-8-8-8-8-8-8-8-8----------------------5~---------------7~-----------8~---------|

 |Guitar 1:                                                                      |
D|-------------------------------------------------------------------------------|
A|-------------------------------------------------------------------------------|
F|T19p12h14-T19p12h14-T19p12h14-T19p12h14-T21p12h14-T21p12h14-T22p12h14-T22p12h14|
C|-------------------------------------------------------------------------------|
G|-------------------------------------------------------------------------------|
C|-------------------------------------------------------------------------------|
 |Guitar 2:                                                                      |
D|-------------------------------------------------------------------------------|
A|-------------------------------------------------------------------------------|
F|-------------------------------------10---10---10---10----9---9---7---7--------|
C|-0---0---0---0---0---0---0---0--------x----x----x----x----x---x---x---x--------|
G|-0---0---0---0---0---0---0---0--------8----8----8----8----7---7---5---5--------|
C|-0---0---0---0---0---0---0---0-------------------------------------------------|

 |Guitar 1:                                                                      |
D|-------------------------------------------------------------------------------|
A|-------------------------------------------------------------------------------|
F|T19p12h14-T19p12h14-T19p12h14-T19p12h14-T21p12h14-T21p12h14-T22p12h14-T22p12h14|
C|-------------------------------------------------------------------------------|
G|-------------------------------------------------------------------------------|
C|-------------------------------------------------------------------------------|
 |Guitar 2:                                                                      |
D|-------------------------------------------------------------------------------|
A|-------------------------------------------------------------------------------|
F|-------------------------------------14---14---14---14---12--12--10--10--------|
C|-0---0---0---0---0---0---0---0--------x----x----x----x----x---x---x---x--------|
G|-0---0---0---0---0---0---0---0-------12---12---12---12---10--10---8---8--------|
C|-0---0---0---0---0---0---0---0-------------------------------------------------|

 |Guitar 1:                                                                      |
D|-------------------------------------------------------------------------------|
A|T17p13h15-T17p13h15-T17p13h15-T17p13h15-T18p13h15-T18p13h15-T20p13h15-T20p13h15|
F|-------------------------------------------------------------------------------|
C|-------------------------------------------------------------------------------|
G|-------------------------------------------------------------------------------|
C|-------------------------------------------------------------------------------|
 |Guitar 2:                                                                      |
D|-------------------------------------------------------------------------------|
A|-------------------------------------------------------------------------------|
F|--------------------------------------9----9----9----9---14--14--14--14--------|
C|-8---8---8---8---8---8---8---8--------x----x----x----x----x---x---x---x--------|
G|-8---8---8---8---8---8---8---8--------7----7----7----7---12--12--12--12--------|
C|-8---8---8---8---8---8---8---8-------------------------------------------------|

 |Guitar 1:                                                                      |
D|-------------------------------------------------------------------------------|
A|T22p15h17-T22p15h17-T22p15h17-T22p15h17-T20p15h17-T20p15h17-T22p15h17-T22p15h17|
F|-------------------------------------------------------------------------------|
C|-------------------------------------------------------------------------------|
G|-------------------------------------------------------------------------------|
C|-------------------------------------------------------------------------------|
 |Guitar 2:                                                                      |
D|-------------------------------------------------------------------------------|
A|-------------------------------------------------------------------------------|
F|-------------------------------------------------------------------------------|
C|-5~----------------------------------------7~------------------8~--------------|
G|-5~----------------------------------------7~------------------8~--------------|
C|-5~----------------------------------------7~------------------8~--------------|

 |Guitar 1:                                                                      |
D|-------17h22p17-----------17h22p17-----------17h20p17-----------17h20p17-------|
A|-----18--------18-------18--------18-------18--------18-------18--------18-----|
F|---19------------19---19------------19---19------------19---19------------19---|
C|-------------------------------------------------------------------------------|
G|-------------------------------------------------------------------------------|
C|-------------------------------------------------------------------------------|
 |Guitar 2:                                                                      |
D|-------------------------------------------------------------------------------|
A|-------------------------------------------------------------------------------|
F|-------------------------------------10---10---10---10----9---9---7---7--------|
C|-0---0---0---0---0---0---0---0--------x----x----x----x----x---x---x---x--------|
G|-0---0---0---0---0---0---0---0--------8----8----8----8----7---7---5---5--------|
C|-0---0---0---0---0---0---0---0-------------------------------------------------|

 |Guitar 1:                                                                      |
D|-------17h22p17-----------17h22p17-----------17h20p17-----------17h20p17-------|
A|-----18--------18-------18--------18-------18--------18-------18--------18-----|
F|---19------------19---19------------19---19------------19---19------------19---|
C|-------------------------------------------------------------------------------|
G|-------------------------------------------------------------------------------|
C|-------------------------------------------------------------------------------|
 |Guitar 2:                                                                      |
D|-------------------------------------------------------------------------------|
A|-------------------------------------------------------------------------------|
F|-------------------------------------14---14---14---14---12--12--10--10--------|
C|-0---0---0---0---0---0---0---0--------x----x----x----x----x---x---x---x--------|
G|-0---0---0---0---0---0---0---0-------12---12---12---12---10--10---8---8--------|
C|-0---0---0---0---0---0---0---0-------------------------------------------------|

 |Guitar 1:                                                                      |
D|-18-17----17-------------------------------------------------------------------|
A|-------20----20-18-20-18-17-18-17----17-------15*------------------------------|
F|----------------------------------19-------------------------------------------|
C|-------------------------------------------------------------------------------|
G|-------------------------------------------------------------------------------|
C|-------------------------------------------------------------------------------|
 |Guitar 2:                                                                      |
D|-------------------------------------------------------------------------------|
A|-------------------------------------------------------------------------------|
F|--------------------------------------9----9----9----9---14--14--14--14--------|
C|-8---8---8---8---8---8---8---8--------x----x----x----x----x---x---x---x--------|
G|-8---8---8---8---8---8---8---8--------7----7----7----7---12--12--12--12--------|
C|-8---8---8---8---8---8---8---8-------------------------------------------------|

 |Guitar 1: (Not 100% Sure)                                                      |
D|-17-15--------------15-17-18p17/20--20p17---------17-20b22---------------------|
A|-------17-15-17-18-----------------------18-----18-----------------------------|
F|-------------------------------------------19-19-------------------------------|
C|-------------------------------------------------------------------------------|
G|-------------------------------------------------------------------------------|
C|-------------------------------------------------------------------------------|
 |Guitar 2:                                                                      |
D|-------------------------------------------------------------------------------|
A|-------------------------------------------------------------------------------|
F|-------------------------------------------------------------------------------|
C|-5~----------------------------------------7~------------------8~--------------|
G|-5~----------------------------------------7~------------------8~--------------|
C|-5~----------------------------------------7~------------------8~--------------|
Suggest correction
Creating personal tab
Creating personal tab
You can edit any tab online and save it as your Personal.

You can edit, replace or remove any tab part or add personal notes – all changes will be seen only by you.

Personal tabs can be accessed anytime from any device, even offline.
Learn more »
comments
print report bad tab
4 comments total. Showing first comments.
0 reply
Warlock2019 10 Aug 10, 2006 05:44 AM

Awesome tab! Hopefully you'll keep doing more by this band! (like this song remains unnamed and blood red sky or... any and everything off this album!)

0 reply
SkateTillDeath 83 Aug 11, 2006 07:37 AM

i know there's a way to edit the tab...but i dont' remember how lol cause i tabbed the solo and am tryin to figure out how to "update" it. I haven't been on UG for a long time

0 reply
seanius 628 Aug 30, 2006 10:51 AM

r you still tryin to update it? click on "my account" , "view all my contributions" and then click the blue button on the right!!..il admit yours is better because of how in depth it is but i meant mine is easier to read cos its just one guitar and not as much of it so its easier to memerize...yours is fukin awesome tho il give u that!!

guest
You may want to rate the tab now too:
select rating
Wanna post a correction for this tab? Suggest correction