Oops, an error
Loading. Please wait.

Stay With You Bass Tab

version 2
version 2

Whole song

46 views 1 this week
no commentswrite comment
1 2 3 4 5
1 last vote to show rating
add to favorites
launch autoscroll
font size
0
reset
guitar tuner
Autoscroll
slow
fast
+/-
esc
set tempo
stop
Help us to improve Ultimate-Guitar.com Take our survey!
×
Author
Tuning
E A D G B E
--------------------------------------------------------------------------
                            Artist - Silent Partner 
                          **************************
                             Song - Stay With You
                            **********************
                             Tabbed By - Ayreon77
                            **********************
--------------------------------------------------------------------------
Tuning = Standard             



00:01
G|--------------------|--------------------|--------------------|--------------------|
D|----------------2-4-|--------------------|----------------2-4-|--------------------|
A|-5--5-5--5-5--5-----|-2--2-2--2-2--2-2-0-|-5--5-5--5-5--5-----|-2--2-2--2-2--2-2-0-|
E|--------------------|--------------------|--------------------|--------------------|

Guitar Comes In
G|--------------------|--------------------|--------------------|--------------------|
D|----------------2-4-|--------------------|----------------2-4-|--------------------|
A|-5--5-5--5-5--5-----|-2--2-2--2-2--2-2-0-|-5--5-5--5-5--5-----|-2--2-2--2-2--2-2-0-|
E|--------------------|--------------------|--------------------|--------------------|


-------------------
00:26
G|----------------------------------------|-----------------------------|
D|----------------0-----------------------|----------------0------------|
A|-------2--0--0-----2--2--2-2-2--2-2-2-2-|-------2--0--0-----2--2--2-2-|
E|-3--3-----------------------------------|-3--3------------------------|


00:36
G|-----------------------------------|-----------------------|--------------|
D|-----------------------------------|-----------------------|--------------|
A|--------------------2-0--0-0-0-0-0-|-5-5-5-4--4-2--2-2-2-2-|----------2-0-|
E|-2--2--2-2-3--3-3-3----------------|-----------------------|-2--2-2-2-----|


-------------------
00:47
G|--------------------|--------------------|--------------------|--------------------|
D|----------------2-4-|--------------------|----------------2-4-|--------------------|
A|-5--5-5--5-5--5-----|-2--2-2--2-2--2-2-0-|-5--5-5--5-5--5-----|-2--2-2--2-2--2-2-0-|
E|--------------------|--------------------|--------------------|--------------------|

01:00
G|-------------|------------|-------------|-------------|-------------|-----------|------------|------------|
D|-------------|--------2-4-|-------------|-------------|-------------|--------2-4|------------|------------|
A|-5--5-5-5--5-|-5--5-5-----|-2--2-2-2--2-|-2--2-2--2-0-|-5--5-5-5--5-|-5--5-5----|-2--2-2-2--2|-2--2-2--2-0|
E|-------------|------------|-------------|-------------|-------------|-----------|------------|------------|


-------------------
01:12
G|-------------------------------------------|---------------------------------|
D|--------------------0----------------------|--------------------0------------|
A|---------2--0--0--0----2--2--2-2-2--2--2-2-|---------2--0--0--0----2--2--2-2-|
E|-3--3--3-----------------------------------|-3--3--3-------------------------|

01:23
G|-----------------------------------|-----------------------|--------------|
D|-----------------------------------|-----------------------|--------------|
A|--------------------2-0--0-0-0-0-0-|-5-5-5-4--4-2--2-2-2-2-|----------2-0-|
E|-2--2--2-2-3--3-3-3----------------|-----------------------|-2--2-2-2-----|


-------------------
01:34
G|----------------------|------------|--------------|-------------|-------------|-------------|-------------|
D|------------------2-4-|------------|--------------|-------------|-------------|-------------|-------------|
A|-5--5-5-5-5--5--5-----|-2--2-2-2-2-|-2--2-2-2-2-0-|-5--5-5-5-5-5|-5--5-5-5-5-5|-2--2-2-2-2-2|-2--2-2-2-2-2|
E|----------------------|------------|--------------|-------------|-------------|-------------|-------------|


G|-------------|-----------|-------------|-------------|-------------|-----------|-------------|-------------|
D|-------------|--------2-4|-------------|-------------|-------------|--------2-4|-------------|-------------|
A|-5--5-5-5-5-5|-5--5-5----|-2--2-2-2-2-2|-2--2-2-2-2-0|-5--5-5-5-5-5|-5--5-5----|-2--2-2-2-2-2|-2--2-2-2-2-0|
E|-------------|-----------|-------------|-------------|-------------|-----------|-------------|-------------|


-------------------
01:58
G|----------------------------------------|-----------------------------|
D|----------------0-----------------------|----------------0------------|
A|-------2--0--0-----2--2--2-2-2--2-2-2-2-|-------2--0--0-----2--2--2-2-|
E|-3--3-----------------------------------|-3--3------------------------|

02:09
G|-----------------------------------|-----------------------|--------------|
D|-----------------------------------|-----------------------|--------------|
A|--------------------2-0--0-0-0-0-0-|-5-5-5-4--4-2--2-2-2-2-|----------2-0-|
E|-2--2--2-2-3--3-3-3----------------|-----------------------|-2--2-2-2-----|


G|-------|
D|-0~~~~-|
A|-------|
E|-------|



ENJOY...........
Suggest correction
Give kudos to tab author, rate the tab!
1 2 3 4 5
comments
print report bad tab
guest
You may want to rate the tab now too:
select rating
Wanna post a correction for this tab? Suggest correction