Oops, an error
Loading. Please wait.

Dying In Circles tab

version 1
version 1

Whole song

Interactive

46 views 6 this week
no commentswrite comment
1 2 3 4 5
3 more votes to show rating
add to favorites
×
Save as Personal and add changes to this tab that will be seen only by you. Learn more ›
×
You can save this tab as Personal to edit and correct it or add notes. All changes will be seen only by you. Learn more »
launch autoscroll
font size
0
reset
how to read this tab
guitar tuner
edit
Autoscroll
slow
fast
+/-
esc
set tempo
stop
[Dying In Circles]
[Everything Was Sound]
[Silent Planet]

Tuning: Ab Eb Ab Db F Bb
Playthrough: https://www.youtube.com/edit?o=U&video_id=4ImuPXwJ6D0


[Riff 1, Guitar 1 & 2] - [00:00] - [00:14]
- -------9-----9-----------9-----9-----------9-----------9-----9-----------9-----9-----------9-----
- ----10----10----10----10----10----10----10----10----10----10----10----10----10----10----10----10-
- -13----------------13----------------13----------13----------------13----------------13----------
- -------------------------------------------------------------------------------------------------
- -------------------------------------------------------------------------------------------------
- -------------------------------------------------------------------------------------------------
-
- -------21----------21----------21----------21----------21----------22----------21----------21----
- ----19----19----19----19----19----19----19----19----19----19----19----19----19----19----19----19-
- -------------------------------------------------------------------------------------------------
- -------------------------------------------------------------------------------------------------
- -------------------------------------------------------------------------------------------------
- -------------------------------------------------------------------------------------------------


- -------9-----9-----------9-----9-----------9-----------9-----9-----------9-----9-----------9-----
- ----10----10----10----10----10----10----10----10----10----10----10----10----10----10----10----10-
- -13----------------13----------------13----------13----------------13----------------13----------
- -------------------------------------------------------------------------------------------------
- -------------------------------------------------------------------------------------------------
- -------------------------------------------------------------------------------------------------
-
- -------21----------21----------21----------21----------21----------21----------21----------21----
- ----19----19----19----19----19----19----19----19----19----19----19----19----19----19----19----19-
- -------------------------------------------------------------------------------------------------
- -------------------------------------------------------------------------------------------------
- -------------------------------------------------------------------------------------------------
- -------------------------------------------------------------------------------------------------


[Riff 2a, Guitar 1 & 2] - [00:14] - [00:29]
- ---------------------------------------------------------------------------------------------
- -10---10-10-10-10-10-10-10---10-10-10-10-10-10-14---14-14-14-14-14-14-14---14-14-14-14-14-14-
- -13---13-13-13-13-13-13-13---13-13-13-13-13-13-13---13-13-13-13-13-13-13---13-13-13-13-13-13-
- -12---12-12-12-12-12-12-12---12-12-12-12-12-12-12---12-12-12-12-12-12-12---12-12-12-12-12-12-
- ---------------------------------------------------------------------------------------------
- ---------------------------------------------------------------------------------------------
-
- ---------------------------------------------------------------------------------------------
- ---------------------------------------------------------------------------------------------
- ---------------------------------------------------------------------------------------------
- -11---11-11-11-11-11-11-11---11-11-11-11-11-11-11---11-11-11-11-11-11-11---11-11-11-11-11-11-
- -14---14-14-14-14-14-14-14---14-14-14-14-14-14-14---14-14-14-14-14-14-14---14-14-14-14-14-14-
- -12---12-12-12-12-12-12-12---12-12-12-12-12-12-9----9--9--9--9--9--9--9----9--9--9--9--9--9--


- ---------------------------------------------------------------------------------------------
- -10---10-10-10-10-10-10-10---10-10-10-10-10-10-14---14-14-14-14-14-14-14---14-14-14-14-14-14-
- -13---13-13-13-13-13-13-13---13-13-13-13-13-13-13---13-13-13-13-13-13-13---13-13-13-13-13-13-
- -12---12-12-12-12-12-12-12---12-12-12-12-12-12-12---12-12-12-12-12-12-12---12-12-12-12-12-12-
- ---------------------------------------------------------------------------------------------
- ---------------------------------------------------------------------------------------------
-
- ---------------------------------------------------------------------------------------------
- ---------------------------------------------------------------------------------------------
- -----------------------------------------------11---11-11-11-11-11-11-10---10-10-10-10-10-10-
- -11---11-11-11-11-11-11-11---11-11-11-11-11-11-11---11-11-11-11-11-11-11---11-11-11-11-11-11-
- -14---14-14-14-14-14-14-14---14-14-14-14-14-14-12---12-12-12-12-12-12-11---11-11-11-11-11-11-
- -12---12-12-12-12-12-12-12---12-12-12-12-12-12-----------------------------------------------


[Riff 2b, Guitar 1 & 2] - [00:14] - [00:29] - [x2]
- ---------------------------------------------------------------------------------------------
- -9---------------------/10--------------------/15--------------------\14--------------------\
- ---------------------------------------------------------------------------------------------
- ---------------------------------------------------------------------------------------------
- ---------------------------------------------------------------------------------------------
- ---------------------------------------------------------------------------------------------
AP............................................................................................
- ---------------------------------------------------------------------------------------------
- -12--------------------/14--------------------/19--------------------\18--------------------\
- ---------------------------------------------------------------------------------------------
- ---------------------------------------------------------------------------------------------
- ---------------------------------------------------------------------------------------------
- ---------------------------------------------------------------------------------------------
AP............................................................................................


[Shhh] - [00:29] - [00:36]


[Riff 3a, Guitar 1 & 2] - [00:36] - [00:50]
- ----------------------------------------------------------------------------------------
- ----------------------------------------------------------------------------------------
- ------------------------------------------------------------14--------------------------
- -----------------------------------------7---------------11--------6----------7-7---3h6-
- -------------------------------------------------------9--------------------------------
- -0-0-0-------0-0-0---0---0-0-0-------0h4-----3pbr--------------0h3---3pbr-0h4-----0-----
PM ...         ...         ...
- ----------------------------------------------------------------------------------------
- ------------------------------------------------------------------------------------6h9-
- ------------------------------------------------------------14--------------------------
- -----------------------------------------7---------------11--------6----------7-7-------
- -------------------------------------------------------9--------------------------------
- -0-0-0-------0-0-0---0---0-0-0-------0h4-----6pbr--------------0h3---3pbr-0h4-----0-----
PM ...         ...         ...


- --------------------------------------------------------------------------------------------
- --------------------------------------------------------------------------------------------
- -----------------------------------------------------------13-------------------------------
- -------------------------------------------------6------------11----------6-----------------
- ---------------------------------------999-9-----4---------------9--------4-----4-4-4-4-4-4-
- -----0-0-0-----0-0-0---0---0-0-0-------000-0-----3------------------0-----3-----3-3-3-3-3-3-
PM     ...       ...         ...         .....                                    ...........
- --------------------------------------------------------------------------------------------
- --------------------------------------------------------------------------------------------
- -----------------------------------------------------------13-------------------------------
- -------------------------------------------------6------------------------6-----------------
- ---------------------------------------999-9-----4------------------------4-----4-4-4-4-4-4-
- -----0-0-0-----0-0-0---0---0-0-0-------000-0-----3------------11h12-0-----3-----3-3-3-3-3-3-
PM     ...       ...         ...         .....                                    ...........


[Riff 3b] - [00:36] - [00:50] - [x2]
- -----------------------------------------------------------------
- -14--14--14--14--14--14--14--14--14--14--14--14--14--14--15--15--
- -----------------------------------------------------------------
- -----------------------------------------------------------------
- -----------------------------------------------------------------
- -----------------------------------------------------------------


[Riff 4a, Guitar 1 & 2] - [00:50] - [01:05]
- ---------------------------------------------------------------
- --------------14-14-14-14-14-14-14-14-14-----14-14-14-14-14-14-
- --------------13-13-13-13-13-13-13-13-13-----13-13-13-13-13-13-
- --------------x--x--x--x--x--x--x--x--x------x--x--x--x--x--x--
- --------------11-11-11-11-11-11-11-11-11-----11-11-11-11-11-11-
- ----------0------------------------------0---------------------
-
- --------------14-14-14-14-14-14-14-14-14-----14-14-14-14-14-14-
- --------------14-14-14-14-14-14-14-14-14-----14-14-14-14-14-14-
- --------------14-14-14-14-14-14-14-14-14-----14-14-14-14-14-14-
- ---------------------------------------------------------------
- ---------------------------------------------------------------
- ----------0------------------------------0---------------------


- -------------------------------------------------------------
- -14---------14-14-14-14-14-14-----15-15-15-15-15-15-15-15-15-
- -13---------13-13-13-13-13-13-----14-14-14-14-14-14-14-14-14-
- -x----------x--x--x--x--x--x------x--x--x--x--x--x--x--x--x--
- -11---------11-11-11-11-11-11-----12-12-12-12-12-12-12-12-12-
- ----0---0---------------------0------------------------------
-
- -14---------14-14-14-14-14-14-----16-16-16-16-16-16-16-16-16-
- -14---------14-14-14-14-14-14-----14-14-14-14-14-14-14-14-14-
- -14---------14-14-14-14-14-14-----13-13-13-13-13-13-13-13-13-
- -------------------------------------------------------------
- -------------------------------------------------------------
- ----0---0---------------------0------------------------------


- ---------------------------------------------------------------
- -15-15-15-----14-14-14-14-14-14-14-14-14-----14-14-14-14-14-14-
- -14-14-14-----13-13-13-13-13-13-13-13-13-----13-13-13-13-13-13-
- -x--x--x------x--x--x--x--x--x--x--x--x------x--x--x--x--x--x--
- -11-11-11-----11-11-11-11-11-11-11-11-11-----11-11-11-11-11-11-
- ----------0------------------------------0---------------------
-
- -16-16-16-----14-14-14-14-14-14-14-14-14-----14-14-14-14-14-14-
- -14-14-14-----14-14-14-14-14-14-14-14-14-----14-14-14-14-14-14-
- -13-13-13-----14-14-14-14-14-14-14-14-14-----14-14-14-14-14-14-
- ---------------------------------------------------------------
- ---------------------------------------------------------------
- ----------0------------------------------0---------------------


- -------------------------------------------------------------
- -14---------14-14-14-14-14-14-----15-15-15-15-15-15-15-15-15-
- -13---------13-13-13-13-13-13-----14-14-14-14-14-14-14-14-14-
- -x----------x--x--x--x--x--x------x--x--x--x--x--x--x--x--x--
- -11---------11-11-11-11-11-11-----12-12-12-12-12-12-12-12-12-
- ----0---0---------------------0------------------------------
-
- -14---------14-14-14-14-14-14-----16-16-16-16-16-16-16-16-16-
- -14---------14-14-14-14-14-14-----14-14-14-14-14-14-14-14-14-
- -14---------14-14-14-14-14-14-----13-13-13-13-13-13-13-13-13-
- -------------------------------------------------------------
- -------------------------------------------------------------
- ----0---0---------------------0------------------------------


[Riff 4b, Guitar 1 & 2] - [00:50] - [01:05]
- -----16---------/17-------------\16-------------/17--------------
- -----------------------------------------------------------------
- -----------------------------------------------------------------
- -----------------------------------------------------------------
- -----------------------------------------------------------------
- -----------------------------------------------------------------
AP................................................................
- ---------------------------------19-------------/21-----/22------
- -----18---------/19----------------------------------------------
- -----------------------------------------------------------------
- -----------------------------------------------------------------
- -----------------------------------------------------------------
- -----------------------------------------------------------------
AP................................................................


[Riff 1, Guitar 1 & 2] - [01:05] - [01:08] - [x0.25]


[Riff 5a, Guitar 1 & 2] - [01:08] - [01:37]
- ---------------------------------------------------------------------------------------------
- -10---10-10-10-10-10-10-10---10-10-10-10-10-10-14---14-14-14-14-14-14-14---14-14-14-14-14-14-
- -13---13-13-13-13-13-13-13---13-13-13-13-13-13-13---13-13-13-13-13-13-13---13-13-13-13-13-13-
- -12---12-12-12-12-12-12-12---12-12-12-12-12-12-12---12-12-12-12-12-12-12---12-12-12-12-12-12-
- ---------------------------------------------------------------------------------------------
- ---------------------------------------------------------------------------------------------
-
- ---------------------------------------------------------------------------------------------
- ---------------------------------------------------------------------------------------------
- ---------------------------------------------------------------------------------------------
- -11---11-11-11-11-11-11-11---11-11-11-11-11-11-11---11-11-11-11-11-11-11---11-11-11-11-11-11-
- -14---14-14-14-14-14-14-14---14-14-14-14-14-14-14---14-14-14-14-14-14-14---14-14-14-14-14-14-
- -12---12-12-12-12-12-12-12---12-12-12-12-12-12-9----9--9--9--9--9--9--9----9--9--9--9--9--9--


- ---------------------------------------------------------------------------------------------
- -10---10-10-10-10-10-10-10---10-10-10-10-10-10-14---14-14-14-14-14-14-14---14-14-14-14-14-14-
- -13---13-13-13-13-13-13-13---13-13-13-13-13-13-13---13-13-13-13-13-13-13---13-13-13-13-13-13-
- -12---12-12-12-12-12-12-12---12-12-12-12-12-12-12---12-12-12-12-12-12-12---12-12-12-12-12-12-
- ---------------------------------------------------------------------------------------------
- ---------------------------------------------------------------------------------------------
-
- ---------------------------------------------------------------------------------------------
- ---------------------------------------------------------------------------------------------
- ---------------------------------------------------------------------------------------------
- -11---11-11-11-11-11-11-11---11-11-11-11-11-11-14---14-14-14-14-14-14-14---14-14-14-14-14-14-
- -14---14-14-14-14-14-14-14---14-14-14-14-14-14-17---17-17-17-17-17-17-17---17-17-17-17-17-17-
- -12---12-12-12-12-12-12-12---12-12-12-12-12-12-14---14-14-14-14-14-14-14---14-14-14-14-14-14-


- ---------------------------------------------------------------------------------------------
- -10---10-10-10-10-10-10-10---10-10-10-10-10-10-14---14-14-14-14-14-14-14---14-14-14-14-14-14-
- -13---13-13-13-13-13-13-13---13-13-13-13-13-13-13---13-13-13-13-13-13-13---13-13-13-13-13-13-
- -12---12-12-12-12-12-12-12---12-12-12-12-12-12-12---12-12-12-12-12-12-12---12-12-12-12-12-12-
- ---------------------------------------------------------------------------------------------
- ---------------------------------------------------------------------------------------------
-
- ---------------------------------------------------------------------------------------------
- ---------------------------------------------------------------------------------------------
- ---------------------------------------------------------------------------------------------
- -11---11-11-11-11-11-11-11---11-11-11-11-11-11-11---11-11-11-11-11-11-11---11-11-11-11-11-11-
- -14---14-14-14-14-14-14-14---14-14-14-14-14-14-14---14-14-14-14-14-14-14---14-14-14-14-14-14-
- -12---12-12-12-12-12-12-12---12-12-12-12-12-12-9----9--9--9--9--9--9--9----9--9--9--9--9--9--


- ---------------------------------------------------------------------------------------------
- -10---10-10-10-10-10-10-10---10-10-10-10-10-10-14---14-14-14-14-14-14-15---------------------
- -13---13-13-13-13-13-13-13---13-13-13-13-13-13-13---13-13-13-13-13-13----11------------------
- -12---12-12-12-12-12-12-12---12-12-12-12-12-12-12---12-12-12-12-12-12-------15-12------------
- ----------------------------------------------------------------------------------11br---\4--
- ---------------------------------------------------------------------------------------------
-
- ---------------------------------------------------------------------------------------------
- ----------------------------------------------------------------------15---------------------
- -------------------------------------------------------------------------11------------------
- -11---11-11-11-11-11-11-11---11-11-11-11-11-11-14---14-14-14-14-14-14-------15-12------------
- -14---14-14-14-14-14-14-14---14-14-14-14-14-14-17---17-17-17-17-17-17-------------11br---\4--
- -12---12-12-12-12-12-12-12---12-12-12-12-12-12-14---14-14-14-14-14-14------------------------


[Riff 5b, Guitar 1 & 2] - [01:08] - [01:37]
- ---------------------------------------------------------------------------------------------
- -12--------------------/14--------------------/15-------------------------------------------\
- ---------------------------------------------------------------------------------------------
- ---------------------------------------------------------------------------------------------
- ---------------------------------------------------------------------------------------------
- ---------------------------------------------------------------------------------------------
AP............................................................................................
- ---------------------------------------------------------------------------------------------
- -19-------------------------------------------\18-------------------------------------------/
- ---------------------------------------------------------------------------------------------
- ---------------------------------------------------------------------------------------------
- ---------------------------------------------------------------------------------------------
- ---------------------------------------------------------------------------------------------
AP............................................................................................


- ---------------------------------------------------------------------------------------------
- -12--------------------/14--------------------/15-------------------------------------------\
- ---------------------------------------------------------------------------------------------
- ---------------------------------------------------------------------------------------------
- ---------------------------------------------------------------------------------------------
- ---------------------------------------------------------------------------------------------
AP............................................................................................
- ---------------------------------------------------------------------------------------------
- -19-------------------------------------------\18-------------------------------------------/
- ---------------------------------------------------------------------------------------------
- ---------------------------------------------------------------------------------------------
- ---------------------------------------------------------------------------------------------
- ---------------------------------------------------------------------------------------------
AP............................................................................................


- ---------------------------------------------------------------------------------------------
- -12--------------------/14--------------------/15-------------------------------------------\
- ---------------------------------------------------------------------------------------------
- ---------------------------------------------------------------------------------------------
- ---------------------------------------------------------------------------------------------
- ---------------------------------------------------------------------------------------------
AP............................................................................................
- ---------------------------------------------------------------------------------------------
- -19-------------------------------------------\18-------------------------------------------/
- ---------------------------------------------------------------------------------------------
- ---------------------------------------------------------------------------------------------
- ---------------------------------------------------------------------------------------------
- ---------------------------------------------------------------------------------------------
AP............................................................................................


- ---------------------------------------------------------------------------------------------
- -12--------------------/14--------------------/19--------------------------------/21---------
- ---------------------------------------------------------------------------------------------
- ---------------------------------------------------------------------------------------------
- ---------------------------------------------------------------------------------------------
- ---------------------------------------------------------------------------------------------
AP............................................................................................
- -----------------------------------------------19--------------------------------/21---------
- -19------------------------------------------------------------------------------------------
- ---------------------------------------------------------------------------------------------
- ---------------------------------------------------------------------------------------------
- ---------------------------------------------------------------------------------------------
- ---------------------------------------------------------------------------------------------
AP............................................................................................


[Riff 6, Guitar 1 & 2] - [01:37] - [01:52]
- ------------------------------------------------------------------------10-10-10-
- -----------------------------------------------------------------14-----14-14-14-
- ---------2-2-2-2-2-2-2-2-2-2-2-2-2---------2-2-2-2-----13------------------------
- ---------6-6-6-6-6-6-6-6-6-6-6-6-6---------6-6-6-6--------11---------------------
- ---------5-5-5-5-5-5-5-5-5-5-5-5-5---------5-5-5-5-----------9-------------------
- -----0-----------------------------4/7-0-----------0-----------0----0------------
-
- ------------------------------------------------------------------------10-10-10-
- -----------------------------------------------------------------14-----14-14-14-
- -------------------------------------------------------13------------------------
- ----------------------------------------------------------11---------------------
- -------------------------------------------------------------9-------------------
- -----0-----------------------------4/7-0-----------0-----------0----0------------


- -------------------------------------------------------------------------
- -------------------------------------------------------------9-----------
- ---------2-2-2-2-2-2-2-2-2-2-2-2-----2-2-2-2-2-2-----2-------------------
- ---------6-6-6-6-6-6-6-6-6-6-6-6-----6-6-6-6-6-6-------6-----------------
- ---------5-5-5-5-5-5-5-5-5-5-5-5-----5-5-5-5-5-5---------5/8-------4-4-4-
- -----0---------------------------0---------------0h3-----------0---3-3-3-
PM                                                                   .....
- -------------------------------------------------------------------------
- -------------------------------------------------------------9-----------
- -------------------------------------2-2-2-2-2-2-----2-------------------
- -------------------------------------6-6-6-6-6-6-------6-----------------
- -------------------------------------5-5-5-5-5-5---------5/8-------4-4-4-
- -----0---------------------------0---------------0h3-----------0---3-3-3-
PM                                                                   .....


[Riff 7a, Guitar 1 & 2] - [01:52] - [02:06]
- -------------------------------------------------------------------------------------------------
- -------------------------------------------------------------------------------------------------
- -------------------------------------------------------------------------------------------------
- -------------------------------------------------------------------------------6-----6-----6-----
- -------------------------------------------------------------------------------4-4-4-4-4-4-4-4-4-
- -------0-----------------------0--------------------4\-0-----------------0-----3-3-3-3-3-3-3-3-3-
PM                                                                                 ...   ...   ...
- -------------------------------------------------------------------------------------------------
- -------------------------------------------------------------------------------------------------
- -------------------------------------------------------------------------------------------------
- -------------------------------------------------------------------------------6-----6-----6-----
- -------------------------------------------------------------------------------4-4-4-4-4-4-4-4-4-
- -------0-----------------------0--------------------4\-0-----------------0-----3-3-3-3-3-3-3-3-3-
PM                                                                                 ...   ...   ...


- -------------------------------------------------------------------------------------------------
- -------------------------------------------------------------------------------------------------
- -------------------------------------------------------------------------------------------------
- -------------------------------------------------------------------------------6-----6-----6-----
- -------------------------------------------------------------------------------4-4-4-4-4-4-4-4-4-
- -------------3pbr--------------0--------------------4\-0-----------------0-----3-3-3-3-3-3-3-3-3-
PM                                                                                 ...   ...   ...
- -------------------------------------------------------------------------------------------------
- -------------------------------------------------------------------------------------------------
- -------------------------------------------------------------------------------------------------
- -------------------------------------------------------------------------------6-----6-----6-----
- -------------------------------------------------------------------------------4-4-4-4-4-4-4-4-4-
- -------------0-----------------0--------------------4\-0-----------------0-----3-3-3-3-3-3-3-3-3-
PM                                                                                 ...   ...   ...


[Riff 7b, Guitar 1 & 2] - [01:52] - [02:06]
- -------14----14----------14----14----------14----------13----13----------13----13----------13----
- ----15----15----15----15----15----15----15----15----15----15----15----15----15----15----15----15-
- -18----------------18----------------18----------18----------------18----------------18----------
- -------------------------------------------------------------------------------------------------
- -------------------------------------------------------------------------------------------------
- -------------------------------------------------------------------------------------------------
-
- -------------------------17----------------------21----------------------------------------------
- -21----------------------------------------------------------------------18----------------------
- -------------------------------------------------------------------------------------------------
- -------------------------------------------------------------------------------------------------
- -------------------------------------------------------------------------------------------------
- -------------------------------------------------------------------------------------------------
AP................................................................................................


- -------14----14----------14----14----------14----------13----13----------13----13----------13----
- ----15----15----15----15----15----15----15----15----15----15----15----15----15----15----15----15-
- -18----------------18----------------18----------18----------------18----------------18----------
- -------------------------------------------------------------------------------------------------
- -------------------------------------------------------------------------------------------------
- -------------------------------------------------------------------------------------------------
-
- -------------------------17----------------------------------------------------------------------
- -21----------------------------------------------19----------------------18----------------------
- -------------------------------------------------------------------------------------------------
- -------------------------------------------------------------------------------------------------
- -------------------------------------------------------------------------------------------------
- -------------------------------------------------------------------------------------------------
AP................................................................................................


[Riff 7c] - [02:06] - [02:14]
- -------14----14----------14----14----------14----------13----13----------13----------------------
- ----15----15----15----15----15----15----15----15----15----15----15----15-15----------------------
- -18----------------18----------------18----------18----------------18----18----------------------
- -------------------------------------------------------------------------------------------------
- -------------------------------------------------------------------------------------------------
- -------------------------------------------------------------------------------------------------

[Riff 8a] - [02:14] - [02:43] - [x2]
- -----------------------------------------------------------------
- -----------------------------------------------------------------
- -----6---6-------------------------6-----6-----------------------
- -----0---0-------------------------0-----0-------6-6-6-6-6-6-6-6-
- -----4---4-------------------------4-----4-------4-4-4-4-4-4-4-4-
- -0-----0-----------------------------0---------0-3-3-3-3-6-6-6-6-

- -----------------------------------------------------------------
- -----------------------------------------------------------------
- -----6---6-------------------------------------------------------
- -----0---0-----------------------6-6-6-6-6-6-6-6-6-6-6-6-6-6-6-6-
- -----4---4-----------------------4-4-4-4-4-4-4-4-4-4-4-4-4-4-4-4-
- -0-----0-------------------------4-4-4-4-4-4-4-4-3-3-3-3-6-6-6-6-

[Riff 8b] - [02:14] - [02:43] - [x4]
- -/21-21-21----------21-21-21----------21-21-21----------22-22-22---------------------------------
- --------------------------------------------------------------------------15---------------------
- -----------18br--------------18br--------------18br--------------18br--------11------------------
- --------------------------------------------------------------------------------15-12------------
- --------------------------------------------------------------------------------------11br----\4-
- -------------------------------------------------------------------------------------------------

slide in from 9th fret first time

[Riff 1, Guitar 1 & 2] - [02:43] - [02:55]

[Symbols]

PM... Palm Mute notes with (...) under them
AP... Alternate Pick notes with (...) under them
h     Hammer On
p     Pull Off
[ ]   Harmonic
/     Slide Up
\     Slide Down
x     Dead Note
b     Bend
hb    Hold Bend
pb    Pre-Bend
r     Release Bend
(x )  Play Notes x amount of times
~     Let Ring
\\\   Pick Slide Down
///   Pick Slide Up
/ 3 \ Notes are triplets (3 notes in the space of two)
w\    Whammy Bar Down
w/    Whammy Bar Up
wh    Whammy Bar Hold
T     Right Hand Tap
L     Left Hand Tap

:)
Suggest correction
Creating personal tab
Creating personal tab
You can edit any tab online and save it as your Personal.

You can edit, replace or remove any tab part or add personal notes – all changes will be seen only by you.

Personal tabs can be accessed anytime from any device, even offline.
Learn more »
Give kudos to tab author, rate the tab!
1 2 3 4 5
comments
print report bad tab
guest
You may want to rate the tab now too:
select rating
Wanna post a correction for this tab? Suggest correction