Oops, an error
Loading. Please wait.

First Father tab

version 1
version 1

Whole song

Interactive

70 views 3 this week
no commentswrite comment
1 2 3 4 5
3 more votes to show rating
add to favorites
×
Save as Personal and add changes to this tab that will be seen only by you. Learn more ›
×
You can save this tab as Personal to edit and correct it or add notes. All changes will be seen only by you. Learn more »
launch autoscroll
font size
0
reset
how to read this tab
guitar tuner
edit
Autoscroll
slow
fast
+/-
esc
set tempo
stop
[First Father]
[Everythign Was Sound]
[Silent Planet]

Tuning: Bb F Bb Eb G C
Playthrough: 

[Riff 1a] - [00:00] - [00:31] - [x4]
- -----------------------------------------------------------------
- -3-------------0-----------------------0-------0-------3---------
- ---6-------------6---------------------------------6-------------
- -----4-------4---------------------7-------6---------------------
- -----------5-----------------------------------------------------
- -------0-------------------------4---------------6---------------

[Riff 1b] - [00:14] - [00:31] - [x2]
- ---------------------------------------------------0-------------
- -7-------------------------------------------9-------------------
- -------9-------------------------------11------------------------
- -----------------------------------------------------------------
- -------------9---------------------------------------------------
- -----------------------------------------------------------------


[Riff 2a, Guitar 1 & 2] - [00:31] - [00:44]
- -----------------------------------------------------------------
- -----------------------------------------------------------------
- -----------------------------------------------------------------
- -4-4-4-4-4-4-4-4-4-4-4-4-4-4-4-4-4-4-4-4-4-4-4-4-4-6-6-6-6-6-6-6-
- -5-5-5-5-5-5-5-5-5-5-5-5-5-5-5-5-5-5-5-5-5-5-5-5-5-5-5-5-5-5-5-5-
- -0-0-0-0-0-0-0-0-0-0-0-0-0-0-0-0-4-4-4-4-4-4-4-4-4-6-6-6-6-6-6-6-
-
- -4-4-4-4-4-4-4-4-4-4-4-4-4-4-4-4-5-5-5-5-5-5-5-5-5-7-7-7-7-7-7-7-
- -7-7-7-7-7-7-7-7-7-7-7-7-7-7-7-7-7-7-7-7-7-7-7-7-7-6-6-6-6-6-6-6-
- -7-7-7-7-7-7-7-7-7-7-7-7-7-7-7-7-6-6-6-6-6-6-6-6-6-7-7-7-7-7-7-7-
- -0-0-0-0-0-0-0-0-0-0-0-0-0-0-0-0-4-4-4-4-4-4-4-4-4-6-6-6-6-6-6-6-
- -----------------------------------------------------------------
- -----------------------------------------------------------------


- -----------------------------------------------------------------
- -----------------------------------------------------------------
- -----------------------------------------------------------------
- -4-4-4-4-4-4-4-4-4-4-4-4-4-4-4-4-4-4-4-4-4-4-4-4-4-6-6-6-6-6-6-6-
- -5-5-5-5-5-5-5-5-5-5-5-5-5-5-5-5-5-5-5-5-5-5-5-5-5-5-5-5-5-5-5-5-
- -0-0-0-0-0-0-0-0-0-0-0-0-0-0-0-0-4-4-4-4-4-4-4-4-4-3-3-3-3-3-3-3-
-
- -4-4-4-4-4-4-4-4-4-4-4-4-4-4-4-4-5-5-5-5-5-5-5-5-5-7-7-7-7-7-7-7-
- -7-7-7-7-7-7-7-7-7-7-7-7-7-7-7-7-7-7-7-7-7-7-7-7-7-6-6-6-6-6-6-6-
- -7-7-7-7-7-7-7-7-7-7-7-7-7-7-7-7-6-6-6-6-6-6-6-6-6-7-7-7-7-7-7-7-
- -0-0-0-0-0-0-0-0-0-0-0-0-0-0-0-0-4-4-4-4-4-4-4-4-4-6-6-6-6-6-6-6-
- -----------------------------------------------------------------
- -----------------------------------------------------------------


{Riff 2b] - [00:31] - [00:51]
- -21-----/22---------------------\21------------------------------
- -----------------------------------------------------------------
- -----------------------------------------------------------------
- -----------------------------------------------------------------
- -----------------------------------------------------------------
- -----------------------------------------------------------------
AP ............................................................... 

- -21-----/22---------------------\21------------------------------
- -----------------------------------------------------------------
- -----------------------------------------------------------------
- -----------------------------------------------------------------
- -----------------------------------------------------------------
- -----------------------------------------------------------------
AP ...............................................................

- -19------------------------------
- ---------------------------------
- ---------------------------------
- ---------------------------------
- ---------------------------------
- ---------------------------------
AP ...............................

[Riff 3a] - [00:44] - [01:24] - [x4]
   T              L  T              L  T              L  T              L  T              L  T
- -------------------------------------------------------------------------------------------------
- -------------------------------------------------------------------------------------------------
- ----------------11----------------11----------------11----------------11----------------11-------
- -23p11h12p11h12----23p11h12p11h12----23p11h12p11h12----23p11h12p11h12----23p11h12p11h12----23p11-
- -------------------------------------------------------------------------------------------------
- -------------------------------------------------------------------------------------------------

   T              L  T              L  T              L  T              L  T              L  T
- -------------------------------------------------------------------------------------------------
- -------------------------------------------------------------------------------------------------
- ----------------10----------------10----------------10----------------10----------------10-------
- -24p11h12p11h12----24p11h12p11h12----24p11h12p11h12----24p11h12p11h12----24p11h12p11h12----24p11-
- -------------------------------------------------------------------------------------------------
- -------------------------------------------------------------------------------------------------


[Riff 3b, Guitar 1 & 2] - [00:44] - [00:58]
- -----------------------------------------------------------------
- -----------------------------------------------------------------
- -----------------------------------------------------------------
- -6---6-----------------------------------------------------------
- -5---5-----------------------------------------------------------
- -0---0---------------------------------------------------------0-
-
- -----------------------------------------------------------------
- -----------------------------------------------------------------
- -----------------------------------------------------------------
- -6---6-----------------------------------------------------------
- -5---5-----------------------------------------------------------
- -0---0---------------------------------------------------------0-


- -----------------------------------------------------------------
- -----------------------------------------------------------------
- -----------------------------------------------------------------
- -6-------------------------------6-------6-------6---------------
- -5-------------------------------5-------5-------5-------0-------
- -0-----------------------------0-0-----0-0-----0-0-----0-0-------
PM                                                         .
- -7-------------------------------7-------7-------7---------------
- -6-------------------------------6-------6-------6---------------
- -7-------------------------------7-------7-------7---------------
- -6-------------------------------6-------6-------6---------------
- ---------------------------------------------------------0-------
- -------------------------------0-------0-------0-------0-0-------
PM                                                         .


[Riff 4a, Guitar 1 & 2] - [00:58] - [01:24]
- -------------4---------------------------------------------------
- -3-----------7---------------------------------------------------
- ---6---------7---------------------------------------------------
- -----4-------0---------------------------------------------------
- -----------------------------------------------------------------
- -------0---------------------------------------------------------
-
- -----------------------------------------------------------------
- -3---------------------------------------------------------------
- ---6---------6---------------------------------------------------
- -----4-------4---------------------------------------------------
- -------------5---------------------------------------------------
- -------0---------------------------------------------------------


- -------------7---------------------------------------------------
- -3-----------6---------------------------------------------------
- ---6---------7---------------------------------------------------
- -----4-------6---------------------------------------------------
- -----------------------------------------------------------------
- -------0---------------------------------------------------------
-
- -----------------------------------------------------------------
- -3---------------------------------------------------------------
- ---6---------4---------------------------------------------------
- -----4-------3---------------------------------------------------
- -------------5---------------------------------------------------
- -------0---------------------------------------------------------


- -------------4---------------------------------------------------
- -3-----------7---------------------------------------------------
- ---6---------7---------------------------------------------------
- -----4-------0---------------------------------------------------
- -----------------------------------------------------------------
- -------0---------------------------------------------------------
-
- -----------------------------------------------------------------
- -3---------------------------------------------------------------
- ---6---------6---------------------------------------------------
- -----4-------4---------------------------------------------------
- -------------5---------------------------------------------------
- -------0---------------------------------------------------------


- -------------7---------------------------------------------------
- -3-----------6---------------------------------------------------
- ---6---------7-----------6-------6-6-----6-6-----6-6-6-6-6-6-6-6-
- -----4-------6-----------0-------0-0-----0-0-----0-0-0-0-0-0-0-0-
- -------------------------4-------4-4-----4-4-----4-4-4-4-4-4-4-4-
- -------0---------------------------------------------------------
-
- -----------------------------------------------------------------
- -3---------------------------------------------------------------
- ---6---------6-----------6-------6-6-----6-6-----6-6-6-6-6-6-6-6-
- -----4-------0-----------0-------0-0-----0-0-----0-0-0-0-0-0-0-0-
- -------------4-----------4-------4-4-----4-4-----4-4-4-4-4-4-4-4-
- -------0---------------------------------------------------------


[Riff 4b, Guitar 1 & 2] - [00:58] - [01:24]
- -----------------------------------------------------------------
- -----------------------------------------------------------------
- -------------11--------------------------------------------------
- -----------------------------------------------------------------
- -----------------------------------------------------------------
- -----------------------------------------------------------------
-
- -----------------------------------------------------------------
- -------------14--------------------------------------------------
- -----------------------------------------------------------------
- -----------------------------------------------------------------
- -----------------------------------------------------------------
- -----------------------------------------------------------------


- -----------------------------------------------------------------
- -----------------------------------------------------------------
- -------------10--------------------------------------------------
- -----------------------------------------------------------------
- -----------------------------------------------------------------
- -----------------------------------------------------------------
-
- -----------------------------------------------------------------
- -------------15--------------------------------------------------
- -----------------------------------------------------------------
- -----------------------------------------------------------------
- -----------------------------------------------------------------
- -----------------------------------------------------------------


- -----------------------------------------------------------------
- -----------------------------------------------------------------
- -------------11--------------------------------------------------
- -----------------------------------------------------------------
- -----------------------------------------------------------------
- -----------------------------------------------------------------
-
- -----------------------------------------------------------------
- -------------14--------------------------------------------------
- -----------------------------------------------------------------
- -----------------------------------------------------------------
- -----------------------------------------------------------------
- -----------------------------------------------------------------


- -----------------------------------------------------------------
- -------------------------------------9---------------------------
- -------------10--------------------------------------------------
- -----------------------------------------------------------------
- -----------------------------------------------------------------
- -----------------------------------------------------------------
-
- -------------------------------------16--------------------------
- -------------15--------------------------------------------------
- -----------------------------------------------------------------
- -----------------------------------------------------------------
- -----------------------------------------------------------------
- -----------------------------------------------------------------


[Riff 5, Guitar 1 & 2] - [01:24] - [01:38]
- -----------------------------------------------------------------
- -----------------------------------------------------------------
- -13b-------------------------------------------------------------
- -----------------------------------------------------------------
- -----------------------------------------------------------------
- -----------------------------------------------------------------
AP ...............................................................
- -----------------------------------------------------------------
- -17b-------------------------------------------------------------
- -----------------------------------------------------------------
- -----------------------------------------------------------------
- -----------------------------------------------------------------
- -----------------------------------------------------------------
AP ...............................................................


- -----------------------------------------------------------------
- -----------------------------------------------------------------
- -12b-------------------------------------------------------------
- -----------------------------------------------------------------
- -----------------------------------------------------------------
- -----------------------------------------------------------------
AP ...............................................................
- -----------------------------------------------------------------
- -16b-------------------------------------------------------------
- -----------------------------------------------------------------
- -----------------------------------------------------------------
- -----------------------------------------------------------------
- -----------------------------------------------------------------
AP ...............................................................


[Riff 6, Guitar 1 & 2] - [01:38] - [01:51]
- -----------------------------------------------------------------------------
- ----------------------------------------------/12-12-12-12-12-12-12-12-12-12-
- ----------------------------------------------/13-13-13-13-13-13-13-13-13-13-
- ------------------------------------4-0---4-0--0--0--0--0--0--0--0--0--0--0--
- --------------0-0-------------------4-0---4-0-/11-11-11-11-11-11-11-11-11-11-
- -2pbr--0-2bpr-0-0-------------------4-0---4-0--------------------------------
PM              ...
- -----------------------------------------------------7--7--7--7--7--7--7--7--
- -----------------------------------------------------6--6--6--6--6--6--6--6--
- -----------------------------------------------------7--7--7--7--7--7--7--7--
- ------------------------------------4-0---4-0--------6--6--6--6--6--6--6--6--
- --------------0-0-------------------4-0---4-0--------------------------------
- -2pbr--0-2bpr-0-0-------------------4-0---4-0--------------------------------
PM              ...


- ------------------------------------------------------------------------------------
- ------------------------------------12-12-12-12-12-12-12-12-3--3--3--3--3--3--------
- ------------------------------------13-13-13-13-13-13-13-13-6--6--6--6--6--6--------
- ------------------------------------0--0--0--0--0--0--0--0--0--0--0--0--0--0--------
- --------------0-0-------------------11-11-11-11-11-11-11-11-4--4--4--4--4--4--------
- -2pbr--0-2bpr-0-0-------------------------------------------------------------------
PM              ...
- ------------------------------------4--4--4--4--4--4--4--4--7--7--7--7--7--7--------
- ------------------------------------3--3--3--3--3--3--3--3--6--6--6--6--6--6--------
- ------------------------------------4--4--4--4--4--4--4--4--7--7--7--7--7--7--------
- ------------------------------------3--3--3--3--3--3--3--3--6--6--6--6--6--6--------
- --------------0-0-------------------------------------------------------------------
- -0w\---0-0w\--0-0-------------------------------------------------------------------
PM              ...


[Riff 7, Guitar 1 & 2] - [01:51] - [02:05] - [x2]
   T     L        T     L        T     L  L  T     L        T     L        T     L  L
- -------------------------------------------------------------------------------------
- ----------------------------------------19----------------------------------------21-
- -------------------------------------18----------------------------------------18----
- -23p16----------23p16----------23p16-------23p16----------23p16----------23p16-------
- -------17-------------17-------------------------17-------------17-------------------
- ----------0--------------0--------------------------0--------------0-----------------
-
- -21----------------------------------------------------------------------------------
- -------------------------------------------------------------------------------------
- -------------------------------------------------------------------------------------
- -------------------------------------------------------------------------------------
- -------------------------------------------------------------------------------------
- -------------------------------------------------------------------------------------
AP ...................................................................................

   T     L        T     L        T     L  L  T     L        T     L     T  L     T  T
- ----------------------------------------------------------------------------------------
- ----------------------------------------19----------------------------------------------
- -------------------------------------18----------------------------------16h22p16-------
- -23p16----------23p16----------23p16-------23p16----------23p16-------------------------
- -------17-------------17-------------------------17-------------17p16-20----------20p16-
- ----------0--------------0--------------------------0-----------------------------------
-
- -21-------------------------------------------------------------------------------------
- ----------------------------------------------------------------------------------------
- ----------------------------------------------------------------------------------------
- ----------------------------------------------------------------------------------------
- ----------------------------------------------------------------------------------------
- ----------------------------------------------------------------------------------------
AP ......................................................................................


[Riff 3a] - [02:05] - [02:31] - [x4]

[Riff 8a, Guitar 1 & 2] - [02:05] - [02:31]
- -----------------4-----------------------------------------------
- -----------------7-----------------------------------------------
- -----------------7-----------------------------------------------
- -----------------0-----------------------------------------------
- -----------------------------------------------------------------
- -----------------------------------------------------------------
-
- -----------------------------------------------------------------
- -----------------------------------------------------------------
- -----------------6-----------------------------------------------
- -----------------4-----------------------------------------------
- -----------------5-----------------------------------------------
- -----------------------------------------------------------------


- -------------7---------------------------------------------------
- -3-----------6---------------------------------------------------
- ---6---------7---------------------------------------------------
- -----4-------6---------------------------------------------------
- -----------------------------------------------------------------
- -------0---------------------------------------------------------
-
- -----------------------------------------------------------------
- -3---------------------------------------------------------------
- ---6---------4---------------------------------------------------
- -----4-------3---------------------------------------------------
- -------------5---------------------------------------------------
- -------0---------------------------------------------------------


- -------------4---------------------------------------------------
- -3-----------7---------------------------------------------------
- ---6---------7---------------------------------------------------
- -----4-------0---------------------------------------------------
- -----------------------------------------------------------------
- -------0---------------------------------------------------------
-
- -----------------------------------------------------------------
- -3---------------------------------------------------------------
- ---6---------6---------------------------------------------------
- -----4-------4---------------------------------------------------
- -------------5---------------------------------------------------
- -------0---------------------------------------------------------


- -------------7---------------------------------------------------
- -3-----------6---------------------------------------------------
- ---6---------7---------------------------------------------------
- -----4-------6---------------------------------------------------
- -----------------------------------------------------------------
- -------0---------------------------------------------------------
-
- -10--------------------------------------------------------------
- ---14--------12--------------------------------------------------
- -----11------13--------------------------------------------------
- -------12----12--------------------------------------------------
- -----------------------------------------------------------------
- -----------------------------------------------------------------


[Riff 8b] - [02:05] - [02:31]
- -----------------------------------------------------------------
- -14---------/19--------------------------------------------------
- -----------------------------------------------------------------
- -----------------------------------------------------------------
- -----------------------------------------------------------------
- -----------------------------------------------------------------

- -----------------------------------------------------------------
- -14---------/21--------------------------------------------------
- -----------------------------------------------------------------
- -----------------------------------------------------------------
- -----------------------------------------------------------------
- -----------------------------------------------------------------

- -----------------------------------------------------------------
- -12---/19--------------------------------------------------------
- -------------18--------------------------------------------------
- -----------------------------------------------------------------
- -----------------------------------------------------------------
- -----------------------------------------------------------------

- -----------------------------------------------------------------
- -14---------/21--------------------------------------------------
- -----------------------------------------------------------------
- -----------------------------------------------------------------
- -----------------------------------------------------------------
- -----------------------------------------------------------------


[Riff 1a] - [02:31] - [02:58] - [x4]

[Riff 9, Guitar 1 & 2] - [02:31] - [02:58]
- -----------------------------------------------------------------
- -17b-------------------------------------------------------------
- -----------------------------------------------------------------
- -----------------------------------------------------------------
- -----------------------------------------------------------------
- -----------------------------------------------------------------
AP ...............................................................
- -----------------------------------------------------------------
- -----------------------------------------------------------------
- -12b-------------------------------------------------------------
- -----------------------------------------------------------------
- -----------------------------------------------------------------
- -----------------------------------------------------------------
AP ...............................................................


- -----------------------------------------------------------------
- -17--------------------------------------------------------------
- -----------------------------------------------------------------
- -----------------------------------------------------------------
- -----------------------------------------------------------------
- -----------------------------------------------------------------
AP ...............................................................
- -----------------------------------------------------------------
- -----------------------------------------------------------------
- -12b-------------------------------------------------------------
- -----------------------------------------------------------------
- -----------------------------------------------------------------
- -----------------------------------------------------------------
AP ...............................................................


- -----------------------------------------------------------------
- -17b-------------------------------------------------------------
- -----------------------------------------------------------------
- -----------------------------------------------------------------
- -----------------------------------------------------------------
- -----------------------------------------------------------------
AP ...............................................................
- -----------------------------------------------------------------
- -----------------------------------------------------------------
- -12b-------------------------------------------------------------
- -----------------------------------------------------------------
- -----------------------------------------------------------------
- -----------------------------------------------------------------
AP ...............................................................


- ---------------------------------19------------------------------
- -17--------------------------------------------------------------
- -----------------------------------------------------------------
- -----------------------------------------------------------------
- -----------------------------------------------------------------
- -----------------------------------------------------------------
AP ...............................................................
- -----------------------------------------------------------------
- ---------------------------------12------------------------------
- -12b-------------------------------------------------------------
- -----------------------------------------------------------------
- -----------------------------------------------------------------
- -----------------------------------------------------------------
AP ...............................................................


[Riff 1a] - [02:58] - [03:24] - [x4]
[Riff 2a, Guitar 1 & 2] - [02:58] - [03:24]


[Riff 10a, Guitar 1 & 2] - [03:24] - [03:51]
- -----------------------------------------------------------------
- -----------------------------------------------------------------
- -----------------------------------------------------------------
- -6---6-----6---6-6---6-------------6---6-6-6-6---0---------0-0-0-
- -5---5-----5---5-5---5-------------5---5-5-5-5-----4-------4-4-4-
- -0---0-----0---0-0---0-------------0---0-0-0-0-4-----4-0-3-------
-
- -----------------------------------------------------------------
- -----------------------------------------------------------------
- -----------------------------------------------------------------
- -6---6-----6---6-6---6-------------6---6-6-6-6---0---------0-0-0-
- -5---5-----5---5-5---5-------------5---5-5-5-5-----4-------4-4-4-
- -0---0-----0---0-0---0-------------0---0-0-0-0-4-----4-0-3-------


- -----------------------------xx------------------4-4-4-4-5-5-5-5-
- -----------------------------xx------------------7-7-7-7-3-3-3-3-
- -----------------------------xx------------------6-6-6-6-6-6-6-6-
- -6---6-----6---6-6---6-------------6---6-6-6-----4-4-4-4-3-3-3-3-
- -5---5-----5---5-5---5-------------5---5-5-5---------------------
- -0---0-----0---0-0---0-------------0---0-0-0-3b-0----------------
-
- -------------------------------xx--------------------------------
- -------------------------------xx----------------3-3-3-3-3-3-3-3-
- -------------------------------xx----------------6-6-6-6-6-6-6-6-
- -6---6-----6---6-6---6-------------6---6-6-6-----0-0-0-0-0-0-0-0-
- -5---5-----5---5-5---5-------------5---5-5-5-----4-4-4-4-4-4-4-4-
- -0---0-----0---0-0---0-------------0---0-0-0-3b-0----------------


- -----------------------------------------------------------------
- -----------------------------------------------------------------
- -----------------------------------------------------------------
- -6---6-----6---6-6---6-------------6---6-6-6-6---0---------0-0-0-
- -5---5-----5---5-5---5-------------5---5-5-5-5-----4-------4-4-4-
- -0---0-----0---0-0---0-------------0---0-0-0-0-4-----4-0-3-------
-
- -----------------------------------------------------------------
- -----------------------------------------------------------------
- -----------------------------------------------------------------
- -6---6-----6---6-6---6-------------6---6-6-6-6---0---------0-0-0-
- -5---5-----5---5-5---5-------------5---5-5-5-5-----4-------4-4-4-
- -0---0-----0---0-0---0-------------0---0-0-0-0-4-----4-0-3-------


- -------------------------------------------------4-4-4-4-5-5-5-5-
- -------------------------------------------------7-7-7-7-3-3-3-3-
- -------------------------------------------------6-6-6-6-6-6-6-6-
- -6---6-----6---6-6---6-------------6---6-6-6-----4-4-4-4-3-3-3-3-
- -5---5-----5---5-5---5-------------5---5-5-5---------------------
- -0---0-----0---0-0---0-------------0---0-0-0-3b-0----------------
-
- -----------------------------------------------------------------
- -------------------------------------------------3-3-3-3-3-3-3-3-
- -------------------------------------------------6-6-6-6-6-6-6-6-
- -6---6-----6---6-6---6-------------6---6-6-6-----0-0-0-0-0-0-0-0-
- -5---5-----5---5-5---5-------------5---5-5-5-----4-4-4-4-4-4-4-4-
- -0---0-----0---0-0---0-------------0---0-0-0-3b-0----------------


[Riff 10b, Guitar 1 & 2] - [03:24] - [03:51]
- -10--------------------------------------------------------------
- -----------------14----------------------------------------------
- -----------------------------------------------------------------
- -----------------------------------------------------------------
- -----------------------------------------------------------------
- -----------------------------------------------------------------
-
- -10--------------------------------------------------------------
- -----------------14----------------------------------------------
- -----------------------------------------------------------------
- -----------------------------------------------------------------
- -----------------------------------------------------------------
- -----------------------------------------------------------------


- -----------------------------------------------------------------
- -12--------------------------------------------------------------
- -----------------13----------------------------------------------
- -----------------------------------------------------------------
- -----------------------------------------------------------------
- -----------------------------------------------------------------
-
- -----------------------------------------------------------------
- -12--------------------------------------------------------------
- -----------------13----------------------------------------------
- -----------------------------------------------------------------
- -----------------------------------------------------------------
- -----------------------------------------------------------------


- -10--------------------------------------------------------------
- -----------------14----------------------------------------------
- -----------------------------------------------------------------
- -----------------------------------------------------------------
- -----------------------------------------------------------------
- -----------------------------------------------------------------
-
- -------12--------------------------------------------------------
- -14--------------------------------------------------------------
- -----------------------------------------------------------------
- -----------------------------------------------------------------
- -----------------------------------------------------------------
- -----------------------------------------------------------------


- -----------------------------------------------------------------
- -12--------------------------------------------------------------
- -----------------13----------------------------------------------
- -----------------------------------------------------------------
- -----------------------------------------------------------------
- -----------------------------------------------------------------
-
- -----------------------------------------------------------------
- -------14--------------------------------------------------------
- -13--------------------------------------------------------------
- -----------------------------------------------------------------
- -----------------------------------------------------------------
- -----------------------------------------------------------------


[Riff 10c] - [03:24] - [03:51] - [x2]
- -----------------------------------------------------------------
- -15--------------------------------------------------------------
- -----------------------------------------------------------------
- -----------------------------------------------------------------
- -----------------------------------------------------------------
- -----------------------------------------------------------------
AP ...............................................................

- -----------------------------------------------------------------
- -14--------------------------------------------------------------
- -----------------------------------------------------------------
- -----------------------------------------------------------------
- -----------------------------------------------------------------
- -----------------------------------------------------------------
AP ...............................................................

[Riff 1a] - [03:51] - [04:21]
[Riff 1b] - [03:51] - [04:21]

[Symbols]

PM... Palm Mute notes with (...) under them
AP... Alternate Pick notes with (...) under them
h     Hammer On
p     Pull Off
[ ]   Harmonic
/     Slide Up
\     Slide Down
x     Dead Note
b     Bend
hb    Hold Bend
pb    Pre-Bend
r     Release Bend
(x )  Play Notes x amount of times
~     Let Ring
\\\   Pick Slide Down
///   Pick Slide Up
/ 3 \ Notes are triplets (3 notes in the space of two)
w\    Whammy Bar Down
w/    Whammy Bar Up
wh    Whammy Bar Hold
T     Right Hand Tap
L     Left Hand Tap

:)

Suggest correction
Creating personal tab
Creating personal tab
You can edit any tab online and save it as your Personal.

You can edit, replace or remove any tab part or add personal notes – all changes will be seen only by you.

Personal tabs can be accessed anytime from any device, even offline.
Learn more »
Give kudos to tab author, rate the tab!
1 2 3 4 5
comments
print report bad tab
guest
You may want to rate the tab now too:
select rating
Wanna post a correction for this tab? Suggest correction