Oops, an error
Loading. Please wait.

First Mother Lilith tab

version 1
version 1

Whole song

Interactive

40 views 1 this week
no commentswrite comment
1 2 3 4 5
3 more votes to show rating
add to favorites
×
Save as Personal and add changes to this tab that will be seen only by you. Learn more ›
×
You can save this tab as Personal to edit and correct it or add notes. All changes will be seen only by you. Learn more »
launch autoscroll
font size
0
reset
how to read this tab
guitar tuner
edit
Autoscroll
slow
fast
+/-
esc
set tempo
stop
[First Mother {Lilith)]
[The Night God Slept]
{Silent Planet]

Tuning: Bb F Bb Eb G C
Playthrough: https://www.youtube.com/watch?v=-aY7LXON1tY

[Riff 1a] - [00:00] - [00:36] - [x3]
- ---------------------------------------------------------
- -------------14------------------------------------------
- -11------------------------------------------------------
- -------------------------11------12----------------------
- ---------------------------------------------12----------
- ---------------------------------------------------------

- ---------------------------------------------------------
- -------------14------------------------------------------
- -11------------------------------------------------------
- -------------------------11------12----------------------
- ---------------------------------------------------------
- ---------------------------------------------------------

[Riff 1b] - [00:06] - [00:12]
- ------------9------------9--------9-7-------------------------
- -7--------7---7--------7--------7-----9-----9-----------------
- --------7------------7--------7---------7-----7------7--------
- -----11-----------11-------11-------------9-----9------9----9-
- ---9------------9---------------------------------11-----11---
- --------------------------------------------------------------


[Riff 2] - [00:12] - [00:36] - [x2]
- -------------------------------------------------------------------------------------------------
- -------------------------------------------------------------------------------------------------
- -7--7--7--7--7--7--7--7--7--7--7--7--7--7--7--7--7--7--7--7--------------------------------------
- -11-11-11-11-11-11-11-11-11-11-11-11-11-11-11-11-11-11-11-11-9--9--9--9--------9--9--9--9--9--9--
- -9--9--9--9--9--9--9--9--9--9--9--9--9--9--9--9--9--9--9--9--11-11-11-11-------11-11-11-11-11-11-
- -------------------------------------------------------------9--9--9--9--------7--7--7--7--7--7--

- -------------------------------------------------------------7--7--7--7--7--7--7--7--7--7--7--7--
- -------------------------------------------------------------9--9--9--9--9--9--9--9--9--9--9--9--
- -7--7--7--7--7--7--7--7--7--7--7--7--7--7--7--7--7--7--7--7--7--7--7--7--7--7--7--7--7--7--7--7--
- -11-11-11-11-11-11-11-11-11-11-11-11-11-11-11-11-11-11-11-11-11-11-11-11-11-11-11-11-11-11-11-11-
- -9--9--9--9--9--9--9--9--9--9--9--9--9--9--9--9--9--9--9--9--------------------------------------
- -------------------------------------------------------------------------------------------------

[Riff 3a] - [00:36] - [00:50]
- -----------------------------------------9-9-----------------------------------------
- -------------------------------------7-7-----------------10-10-10-10-----------------
- -----------------------------6-6-------------6-6---7-7-------------------------------
- -------------------------4-4---------------------------------------------------------
- ---------------------4-4-------------------------------------------------------------
- -------------4---------------------------------------------------------------0-------
PM                     ...............................................

- -------------------------------------------------
- -------------------------------------------------
- -6---6---6---6---6---6---6---6---6---6---6---6---
- -0---0---0---0---0---0---0---0---0---0---0---0---
- -4---4---4---4---4---4---4---4---4---4---4---4---
- -------------------------------------------------

- -----------------------------------------9-9-----------------------------------------
- -------------------------------------7-7-----------------10-10-10-10-----------------
- -----------------------------6-6-------------6-6---7-7---------------6---6---6---6---
- -------------------------4-4-----------------------------------------0---0---0---0---
- ---------------------4-4---------------------------------------------4---4---4---4---
- -------------4-----------------------------------------------------------------------
PM                     ...............................................

- ---------------------------------------------------------
- ---------------------------------------------------------
- ---------6---6---6---6---6---6---6---6---6---6-----------
- ---------0---0---0---0---0---0---0---0---0---0-----------
- ---------4---4---4---4---4---4---4---4---4---4-----------
- -0-------------------------------------------------------


[Riff 3b, Guitar 1 & 2] - [0036] - [00:57]
- -14------------------------------15------------------------------
- -----------------------------------------------------------------
- -----------------------------------------------------------------
- -----------------------------------------------------------------
- -----------------------------------------------------------------
- -----------------------------------------------------------------
AP ...............................................................
- -----------------------------------------------------------------
- -19------------------------------17------------------------------
- -----------------------------------------------------------------
- -----------------------------------------------------------------
- -----------------------------------------------------------------
- -----------------------------------------------------------------
AP ...............................................................


- -17-----------------------------/21----------------------24b-----
- -----------------------------------------------------------------
- -----------------------------------------------------------------
- -----------------------------------------------------------------
- -----------------------------------------------------------------
- -----------------------------------------------------------------
AP ...............................................................
- ---------------------------------------------------------24b-----
- -19-----------------------------/22------------------------------
- -----------------------------------------------------------------
- -----------------------------------------------------------------
- -----------------------------------------------------------------
- -----------------------------------------------------------------
AP ...............................................................


[Riff 4, Guitar 1 & 2] - [00:50] - [01:03]
- -----------------------------------------------------------------
- -----------------------------------------------------------------
- -----------------------------------------------------------6-----
- -----------------------000000------------------------------0-0-0-
- -4---------------4-----444444----4---------------4---------4-4-4-
- -0---------------0---------------0---------------0---------------
PM                       ......                                ...
- -----------------------------------------------------------------
- -----------------------------------------------------------------
- -------------------------------------------------------6---------
- -----------------------000000--------------------------0---------
- -4---------------4-----444444----4---------------4-----4---------
- -0---------------0---------------0---------------0---------------
PM                       ......


- -------------------------------------------------------------
- -------------------------------------------------------------
- -------------------------------------------------------------
- -6---------6-----6-----6---6-----6---------6-----6-----------
- -4---4-4-4-4-4-4-4---4-4-4-4-4-4-4---4-4-4-4-4-4-4-----4-4-4-
- -0---0-0-0-0-0-0-0---0-0-0-0-0-0-0---0-0-0-0-0-0-0-----0-0-0-
PM     .....   ...     .   .   ...     .....   ...        .....
- -----------------------10--10--------------------------------
- -----------------------9---9---------------------------------
- -----------------------7---7---------------------------------
- -6---------------6---------------6---------------6-----------
- -4---------------4---------------4---------------4-----4-4-4-
- -0---------------0---------------0---------------0-----0-0-0-
PM                                                       .....

[Riff 5] - [01:03] - [01:12]
- -------------------------------------------------------------------------------------------------
- -------------------------------------------------------------------------------------------------
- -7--7--7--7--7--7--7--7--7--7--7--7--7--7--7--7--7--7--7--7--------------------------------------
- -11-11-11-11-11-11-11-11-11-11-11-11-11-11-11-11-11-11-11-11-9--9--9--9--------9--9--9--9--9--9--
- -9--9--9--9--9--9--9--9--9--9--9--9--9--9--9--9--9--9--9--9--11-11-11-11-------11-11-11-11-11-11-
- -------------------------------------------------------------9--9--9--9--------7--7--7--7--7--7--

- -------------------------------------------------------------
- -------------------------------------------------------------
- -7--7--7--7--7--7--7--7--7--7--7--7--7--7--7--7--7--7--7--7--
- -11-11-11-11-11-11-11-11-11-11-11-11-11-11-11-11-11-11-11-11-
- -9--9--9--9--9--9--9--9--9--9--9--9--9--9--9--9--9--9--9--9--
- -------------------------------------------------------------

[Riff 6] - [01:12] - [01:16]
- -7-----------------------------7-
- -------------9-------------7h9---
- -------------------------7-------
- ---------------------------------
- ---------------------------------
- ---------------------------------

[Riff 1a] - [01:03] - [01:16]

[Riff 7a] - [01:16] - [01:44]
- -----------------------------------------------------------------
- -----------------------------------------------------------------
- -2-2-2-2-2-2-2-2-2-2-2-2-2-2-2-2-2-2-2-2-2-2-2-2-2-2-2-2-2-2-2-2-
- -6-6-6-6-6-6-6-6-6-6-6-6-6-6-6-6-6-6-6-6-6-6-6-6-6-6-6-6-6-6-6-6-
- -4-4-4-4-4-4-4-4-4-4-4-4-4-4-4-4-4-4-4-4-4-4-4-4-4-4-4-4-4-4-4-4-
- -4-4-4-4-4-4-4-4-4-4-4-4-4-4-4-4-4-4-4-4-4-4-4-4-4-4-4-4-4-4-4-4-

- -----------------------------------------------------------------
- -----------------------------------------------------------------
- -2-2-2-2-2-2-2-2-2-2-2-2-2-2-2-2-4-4-4-4-4-4-4-4-4-4-4-4-4-4-4-4-
- -6-6-6-6-6-6-6-6-6-6-6-6-6-6-6-6-6-6-6-6-6-6-6-6-6-6-6-6-6-6-6-6-
- -4-4-4-4-4-4-4-4-4-4-4-4-4-4-4-4-2-2-2-2-2-2-2-2-2-2-2-2-2-2-2-2-
- -4-4-4-4-4-4-4-4-4-4-4-4-4-4-4-4-2-2-2-2-2-2-2-2-2-2-2-2-2-2-2-2-

- -----------------------------------------------------------------
- -----------------------------------------------------------------
- -2-2-2-2-2-2-2-2-2-2-2-2-2-2-2-2-2-2-2-2-2-2-2-2-2-2-2-2-2-2-2-2-
- -6-6-6-6-6-6-6-6-6-6-6-6-6-6-6-6-6-6-6-6-6-6-6-6-6-6-6-6-6-6-6-6-
- -4-4-4-4-4-4-4-4-4-4-4-4-4-4-4-4-4-4-4-4-4-4-4-4-4-4-4-4-4-4-4-4-
- -4-4-4-4-4-4-4-4-4-4-4-4-4-4-4-4-4-4-4-4-4-4-4-4-4-4-4-4-4-4-4-4-

- ---------------------------------------------------------------------
- ---------------------------------------------------------------------
- -2-2-2-2-2-2-2-2-2-2-2-2-2-2-2-2-4-4-4-4-4-4-4-4-4-4-4-4-4-4-4-4-----
- -6-6-6-6-6-6-6-6-6-6-6-6-6-6-6-6-6-6-6-6-6-6-6-6-6-6-6-6-6-6-6-6-----
- -4-4-4-4-4-4-4-4-4-4-4-4-4-4-4-4-2-2-2-2-2-2-2-2-2-2-2-2-2-2-2-2-----
- -4-4-4-4-4-4-4-4-4-4-4-4-4-4-4-4-2-2-2-2-2-2-2-2-2-2-2-2-2-2-2-2-----


[Riff 7b, Guitar 1 & 2] - [01:16] - [01:57]
- -14----------------------------------------------15--------------
- -----------------------------------------------------------------
- -----------------------------------------------------------------
- -----------------------------------------------------------------
- -----------------------------------------------------------------
- -----------------------------------------------------------------
AP ...............................................................
- -----------------------------------------------------------------
- -19----------------------------------------------17--------------
- -----------------------------------------------------------------
- -----------------------------------------------------------------
- -----------------------------------------------------------------
- -----------------------------------------------------------------
AP ...............................................................


- -14---------------------------------------------/21----------24b-
- -----------------------------------------------------------------
- -----------------------------------------------------------------
- -----------------------------------------------------------------
- -----------------------------------------------------------------
- -----------------------------------------------------------------
AP ...............................................................
- -------------------------------------------------------------24b-
- -19---------------------------------------------/22--------------
- -----------------------------------------------------------------
- -----------------------------------------------------------------
- -----------------------------------------------------------------
- -----------------------------------------------------------------
AP ...............................................................


- -hb--------------------------------------------rb------------------
- -------------------------------------------------------------------
- -------------------------------------------------------------------
- -------------------------------------------------------------------
- -------------------------------------------------------------------
- -------------------------------------------------------------------
AP .................................................................
- -hb--------------------------------------------rb------------------
- -------------------------------------------------------------------
- -------------------------------------------------------------------
- -------------------------------------------------------------------
- -------------------------------------------------------------------
- -------------------------------------------------------------------
AP .................................................................


[Riff 8] - [01:44] - [01:58]
- -----------------------------------------------------------------
- -----------------------------------------------------------------
- -------------------------------------------------------6---6-----
- -----------------------000000--------------------------0---0-----
- -4---------------4-----444444----4---------------4-----4---4-----
- -0---------------0---------------0---------------0---------------
PM                       ......

- ---------------------------------------------------------------------
- ---------------------------------------------------------------------
- -------------------------------------------------------6---6---------
- -----------------------000000--------------------------0---0---------
- -4---------------4-----444444----4---------------4-----4---4---------
- -0---------------0---------------0---------------0-------------------
PM                       ......

[Riff 2] - [01:58] - [02:22] - [x2]
[Riff 1a] - [01:58] - [02:22]


[Riff 9, Guitar 1 & 2] - [02:22] - [02:35]
- --------------------------------------------------------------
- --------------------------------------------------------------
- --------------------------------------------------------------
- --------------------------------------------------------------
- -9~-----------------------------------------------------------
- -0~-----------------------------------------------------------
-
- ------------9------------9--------9-7-------------------------
- -7--------7---7--------7--------7-----9-----9-----------------
- --------7------------7--------7---------7-----7------7--------
- -----11-----------11-------11-------------9-----9------9----9-
- ---9------------9---------------------------------11-----11---
- --------------------------------------------------------------


- --------------------------------------------------------------------
- --------------------------------------------------------------------
- --------------------------------------------------------------------
- --------------------------------------------------------------------
- --------------------------------------------------------------------
- --------------------------------------------------------------------
-
- ------------9------------9--------9-7-------------------------------
- -7--------7---7--------7--------7---------------9-------------------
- --------7------------7--------7-----------------------------7-------
- -----11-----------11-------11---------------------------------------
- ---9------------9---------------------------------------------------
- --------------------------------------------------------------------

[Symbols]

PM... Palm Mute notes with (...) under them
AP... Alternate Pick notes with (...) under them
h     Hammer On
p     Pull Off
[ ]   Harmonic
/     Slide Up
\     Slide Down
x     Dead Note
b     Bend
hb    Hold Bend
pb    Pre-Bend
r     Release Bend
(x )  Play Notes x amount of times
~     Let Ring
\\\   Pick Slide Down
///   Pick Slide Up
/ 3 \ Notes are triplets (3 notes in the space of two)
w\    Whammy Bar Down
w/    Whammy Bar Up
wh    Whammy Bar Hold
T     Right Hand Tap
L     Left Hand Tap

:)

            
            
Suggest correction
Creating personal tab
Creating personal tab
You can edit any tab online and save it as your Personal.

You can edit, replace or remove any tab part or add personal notes – all changes will be seen only by you.

Personal tabs can be accessed anytime from any device, even offline.
Learn more »
Give kudos to tab author, rate the tab!
1 2 3 4 5
comments
print report bad tab
guest
You may want to rate the tab now too:
select rating
Wanna post a correction for this tab? Suggest correction