Oops, an error
Loading. Please wait.

Native Blood tab

version 1
version 1

Whole song

Interactive

994 views 3 this week
no commentswrite comment
1 2 3 4 5
2 more votes to show rating
add to favorites
×
Save as Personal and add changes to this tab that will be seen only by you. Learn more ›
×
You can save this tab as Personal to edit and correct it or add notes. All changes will be seen only by you. Learn more »
launch autoscroll
font size
0
reset
how to read this tab
guitar tuner
edit
Autoscroll
slow
fast
+/-
esc
set tempo
stop
[Native Blood]
[The Night God Slept]
[Silent Planet]

Tuning: Bb F Bb Eb G C
Playthrough: https://www.youtube.com/watch?v=HdbsQX5GkQk

[Riff 1] - [00:00] - [00:16]
- ----------10-10-10-10-10-10-10-10-10-10-10-------------10-10-10-10-10-10-10-10---------------------
- ----------11-11-11-11-11-11-11-11-11-11-11-------------11-11-11-11-11-11-11-11---------------------
- ----------14-14-14-14-14-14-14-14-14-14-14-xx----------14-14-14-14-14-14-14-14---------------------
- -8-----------------------------------------xx-8----------------------------------------------14-14-
- -12----------------------------------------xx-12---------------------------------------12-12-------
- ----12b-0----------------------------------------12b-0-------------------------15b-0-0-------------
PM                                                                                   ...............

- ---------10-10-10-10-10-------10----------------10-10-10-10-----------------------------------------------
- ---------11-11-11-11-11-------11----------------11-11-11-11-----------------------------------------------
- ---------14-14-14-14-14-------14--xxxx----------14-14-14-14-----------------------------------------------
- ----------------------------------xxxx-8----------------------------------14-14-----0~--------------------
- ----------------------------------xxxx-12---------------------------12-12-------------4~------------------
- -7b-0-------------------0-----------------12b-0-------------15b-0-0-------------7h8-------1b-0-1/13-13-13-
PM                                                                ...............

                                    ^^^^
  you can hear slight harmonics when one of the guitars is playing the four dead notes. the can be make with
  your finger between then 9th and 10th fret on the lowest string.


[Riff 2, Guitar 1 & 2] - [00:16] - [01:31]
- ----------------------------------------------------------------------------------------------------
- ----------------------------------------------------------------------------------------------------
- ---------------------------------------------------14-----------------------------------------------
- ----------------------12~-----------------------------12h13----------------------12~----------------
- ------------------------------------0-0-12---0-0-0------------------------------------5-5-5---------
- -0-12b-0-----12-12-13~---0-13b-13br-0-0-13---0-0-0----------0-12b-0-----12-12-13~-----1-1-1---------
PM             .....                  ...      .....                      .....
- ----------------------------------------------------------------------------------------------------
- ----------------------------------------------------------------------------------------------------
- ---------------------------------------------------14-----------------------------------------------
- ----------------------12~-----------------------------12h13----------------------12~----------1-1-1-
- ------------------------------------0-0-12---0-0-0--------------------------------------------5-5-5-
- -0-12b-0-----12-12-13~---0-13b-13br-0-0-13---0-0-0----------0-12b-0-----12-12-13~-------------------
PM             .....                  ...      .....                      .....


- ----------------------------------------------------------------------------------------------------
- ----------------------------------------------------------------------------------------------------
- ---------------------------------------------------14-----------------------------------------------
- ----------------------12~-----------------------------12h13----------------------12~--------1---1---
- ------------------------------------0-0-12---0-0-0------------------------------------------5---5---
- -0-12b-0-----12-12-13~---0-13b-13br-0-0-13---0-0-0----------0-12b-0-----12-12-13~-------------------
PM             .....                  ...      .....                      .....
- ----------------------------------------------------------------------------------------------------
- ----------------------------------------------------------------------------------------------------
- ---------------------------------------------------14-----------------------------------------------
- ----------------------12~-----------------------------12h13----------------------12~--------1---1---
- ------------------------------------0-0-12---0-0-0------------------------------------5-5-5-5---5---
- -0-12b-0-----12-12-13~---0-13b-13br-0-0-13---0-0-0----------0-12b-0-----12-12-13~-----1-1-1---------
PM             .....                  ...      .....                      .....         .....


[Riff 3, Guitar 1 & 2] - [00:31] - [00:38]
- -----------------------------------------------------------------
- ---------------------------------4-4-4-4-4-4-4-4-4-4-4-4-4-4-4-4-
- -7-7-7-7-7-7-7-7-7-7-7-7-7-7-7-7-5-5-5-5-5-5-5-5-5-5-5-5-5-5-5-5-
- -8-8-8-8-8-8-8-8-8-8-8-8-8-8-8-8-7-7-7-7-7-7-7-7-7-7-7-7-7-7-7-7-
- -5-5-5-5-5-5-5-5-5-5-5-5-5-5-5-5---------------------------------
- -----------------------------------------------------------------
-
- -----------------------------------------------------------------
- -----------------------------------------------------------------
- -----------------------------------------------------------------
- -----------------------------------------------------------------
- -5-5---------5-5-5-5---------5-5-6-6---------6-6-6-------6-6-6-6-
- -1-1---------1-1-1-1---------1-1-3-3---------3-3-3-0-----0-0-0-0-
PM                                                         .......


[Riff 4, Guitar 1 & 2] - [00:38] - [00:46]
- ----------------------------------------------------------------------------------------------------
- ----------------------------------------------------------------------------------------------------
- ---------------------------------------------------14-----------------------------------------------
- ----------------------12~-----------------------------12h13----------------------12~--------1---1---
- ------------------------------------0-0-12---0-0-0------------------------------------------5---5---
- -0-12b-0-----12-12-13~---0-13b-13br-0-0-13---0-0-0----------0-12b-0-----12-12-13~-------------------
PM             .....                  ...      .....                      .....
- ----------------------------------------------------------------------------------------------------
- ----------------------------------------------------------------------------------------------------
- ----------------------------------------------------------------------------------------------------
- ------------------------~--------------------------------------------------------12~--------1---1---
- --------------------------------------------------------------------------------------5-5-5-5---5---
- ------------------------------------------------------------0-12b-0-----12-12-13~-----1-1-1---------
PM                                                                        .....         .....


[Riff 3, Guitar 1 & 2] - [00:46] - [00:53]

[Riff 5a] - [00:53] - [01:12]
- -----------------------------------------------------------------
- -----------------------------------------------------------------
- -----------------------------------------------------------------
- -----------------------------------------------------------------
- -----------------------------------------------------------------
- -5-5-5-5-5-5-5-5-5-5-5-5-5-5-5-5-7-7-7-7-7-7-7-7-7-7-7-7-7-7-7-7-

- ---------------------------------------------------------------------------------
- ---------------------------------------------------------------------------------
- ---------------------------------------------------------------------------------
- ---------------------------------------------------------------------------------
- ---------------------------------------------------------------------------------
- -8-8-8-8-8-8-8-8-8-8-8-8-8-8-8-8-10-10-10-10-10-10-10-10-11-11-11-11-11-11-11-11-

[Riff 5b] - [00:45] - [01:12]
- ----------------/13----------12\-----8br--------/18------17/-----
- -----------------------------------------------------------------
- -7/--15br--------------------------------------------------------
- -----------------------------------------------------------------
- -----------------------------------------------------------------
- -----------------------------------------------------------------

- -22-18-------------------22-18-------------------22-18-------------------22-18-------------------
- -------22-18-22-------18-------22-18----------18-------22-18-22-------18-------22-18----------18-
- ----------------19-21----------------21-19-21-------------------19-21----------------18-19-21----
- -------------------------------------------------------------------------------------------------
- -------------------------------------------------------------------------------------------------
- -------------------------------------------------------------------------------------------------

- -22-18-------------------22-18-------------------22-18-------------------22-18-------------------
- -------22-18-22-------18-------22-18----------18-------22-18-22-------18-------22-18----------18-
- ----------------19-21----------------21-19-21-------------------19-21----------------18-19-21----
- -------------------------------------------------------------------------------------------------
- -------------------------------------------------------------------------------------------------
- -------------------------------------------------------------------------------------------------

[Riff 6a] - [01:12] - [01:41] - [x4]
- ----------------------------------------------------------------------------
- ----------------------------------------------------------------------------
- ----------------------------------------------------------------------------
- ----------------------------------------------------------------------------
- ----------------------------------------------------------------------------
- -0-12b-0-----0-12b-0-0-12-12b-0---------0-12b-0-----0-12b-0-----------------

[Riff 6b] - [01:12] - [01:41] - [x4]
- ----------------17----------17/22-------------17----------17----------17----------17-------------
- ----------13-15-------------------23-22\18-------18----------20-18-17----20-17-------------------
- -------------------14-15/19----------------21-------21-------------------------18----------------
- -15-12-13----------------------------------------------19----------------------------20-19-------
- -------------------------------------------------------------------------------------------20\16-
- -------------------------------------------------------------------------------------------------

[Riff 7a] - [01:41] - [02:11]
- -----------------------------------------------------------------
- -----------------------------------------------------------------
- -----------------------------------------------------------------
- -----------------------------------------------------------------
- -----------------------------------------------------------------
- -5-5-5-5-5-5-5-5-5-5-5-5-5-5-5-5-7-7-7-7-7-7-7-7-7-7-7-7-7-7-7-7-

- ---------------------------------------------------------------------------------
- ---------------------------------------------------------------------------------
- ---------------------------------------------------------------------------------
- ---------------------------------------------------------------------------------
- ---------------------------------------------------------------------------------
- -8-8-8-8-8-8-8-8-8-8-8-8-8-8-8-8-10-10-10-10-10-10-10-10-11-11-11-11-11-11-11-11-

- -----------------------------------------------------------------
- -----------------------------------------------------------------
- -----------------------------------------------------------------
- -----------------------------------------------------------------
- -----------------------------------------------------------------
- -5-5-5-5-5-5-5-5-5-5-5-5-5-5-5-5-7-7-7-7-7-7-7-7-7-7-7-7-7-7-7-7-

- ---------------------------------
- ---------------------------------
- ---------------------------------
- ---------------------------------
- ---------------------------------
- -8-8-8-8-8-8-8-8-8-8-8-8-8-8-8-8-

[Riff 7b] - [01:41] - [02:11]
- -22-18-------------------22-18-------------------22-18-------------------22-18-------------------
- -------22-18-22-------18-------22-18----------18-------22-18-22-------18-------22-18----------18-
- ----------------19-21----------------21-19-21-------------------19-21----------------18-19-21----
- -------------------------------------------------------------------------------------------------
- -------------------------------------------------------------------------------------------------
- -------------------------------------------------------------------------------------------------

- -22-18-------------------22-18-------------------22-18-------------------22-18-------------------
- -------22-18-22-------18-------22-18----------18-------22-18-22-------18-------22-18----------18-
- ----------------19-21----------------21-19-21-------------------19-21----------------18-19-21----
- -------------------------------------------------------------------------------------------------
- -------------------------------------------------------------------------------------------------
- -------------------------------------------------------------------------------------------------

- -22-18-------------------22-18-------------------22-18-------------------22-18-------------------
- -------22-18-22-------18-------22-18----------18-------22-18-22-------18-------22-18----------18-
- ----------------19-21----------------21-19-21-------------------19-21----------------18-19-21----
- -------------------------------------------------------------------------------------------------
- -------------------------------------------------------------------------------------------------
- -------------------------------------------------------------------------------------------------

- -22-18-------------------22-18-------------------
- -------22-18-22-------18-------22-18----------18-
- ----------------19-21----------------21-19-21----
- -------------------------------------------------
- -------------------------------------------------
- -------------------------------------------------

[Riff 8] - [02:11] - [02:25]
- ----------10-10-10-10-10-10-10-10-10-10-10-------------10-10-10-10-10-10-10-10---------------------
- ----------11-11-11-11-11-11-11-11-11-11-11-------------11-11-11-11-11-11-11-11---------------------
- ----------14-14-14-14-14-14-14-14-14-14-14-xx----------14-14-14-14-14-14-14-14---------------------
- -8-----------------------------------------xx-8----------------------------------------------14-14-
- -12----------------------------------------xx-12---------------------------------------12-12-------
- ----12b-0----------------------------------------12b-0-------------------------15b-0-0-------------
PM                                                                                   ...............

- ---------10-10-10-10-10-------10----------------10-10-10-10-----------------------------
- ---------11-11-11-11-11-------11----------------11-11-11-11-----------------------------
- ---------14-14-14-14-14-------14--xxxx----------14-14-14-14-----------------------------
- ----------------------------------xxxx-8----------------------------------14-14---------
- ----------------------------------xxxx-12---------------------------12-12---------6-6-6-
- -7b-0-------------------0-----------------12b-0-------------15b-0-0---------------0-0-0-
PM                                                                .......................

[Riff 9] - [02:25] - [02:40]
- ----------10-10-10-10-10-------10-10-10-10----------10-10-10-10-10-------10-------
- ----------11-11-11-11-11-------11-11-11-11----------11-11-11-11-11-------11-------
- ----------14-14-14-14-14-------14-14-14-14----------14-14-14-14-14-------14--xxxx-
- -8-----------------------------------------8---------------------------------xxxx-
- -12----------------------------------------12--------------------------------xxxx-
- ----12b-0----------------0--------------------12b-0----------------0--------------

- ----------10-10-10-10-10-------10-10-10-------------10-10-10-10-10-------10-------
- ----------11-11-11-11-11-------11-11-11-------------11-11-11-11-11-------11-------
- ----------14-14-14-14-14-------14-14-14-xx----------14-14-14-14-14-------14--xxxx-
- -8--------------------------------------xx-8---------------------------------xxxx-
- -12-------------------------------------xx-12--------------------------------xxxx-
- ----12b-0----------------0--------------------12b-0----------------0--------------

{Riff 6b] - [02:25] - [03:53] - [x11]

[Symbols]

PM... Palm Mute notes with (...) under them
AP... Alternate Pick notes with (...) under them
h     Hammer On
p     Pull Off
[ ]   Harmonic
/     Slide Up
\     Slide Down
x     Dead Note
b     Bend
hb    Hold Bend
pb    Pre-Bend
r     Release Bend
(x )  Play Notes x amount of times
~     Let Ring
\\\   Pick Slide Down
///   Pick Slide Up
/ 3 \ Notes are triplets (3 notes in the space of two)
w\    Whammy Bar Down
w/    Whammy Bar Up
wh    Whammy Bar Hold
T     Right Hand Tap
L     Left Hand Tap

:)

            
            
Suggest correction
Creating personal tab
Creating personal tab
You can edit any tab online and save it as your Personal.

You can edit, replace or remove any tab part or add personal notes – all changes will be seen only by you.

Personal tabs can be accessed anytime from any device, even offline.
Learn more »
Give kudos to tab author, rate the tab!
1 2 3 4 5
comments
print report bad tab
guest
You may want to rate the tab now too:
select rating
Wanna post a correction for this tab? Suggest correction