Oops, an error
Loading. Please wait.

Nervosa tab

version 1
version 1

Whole song

Interactive

46 views 1 this week
no commentswrite comment
1 2 3 4 5
3 more votes to show rating
add to favorites
×
Save as Personal and add changes to this tab that will be seen only by you. Learn more ›
×
You can save this tab as Personal to edit and correct it or add notes. All changes will be seen only by you. Learn more »
launch autoscroll
font size
0
reset
how to read this tab
guitar tuner
edit
Autoscroll
slow
fast
+/-
esc
set tempo
stop
[Nervosa]
[Everything Was Sound]
[Silent Planet]

Tuning: Bb F Bb Eb G C
Playthrough: https://www.youtube.com/watch?v=k2BEWbs-Fvo

[Riff 1a] - [00:00] - [00:32]
- -----10--------------10----------------------------------------------
- ---------14--12----------14--12------14--12------------------12------
- -11--------------10--------------------------13------14--13----------
- ---------------------------------12--------------11------------------
- ---------------------------------------------------------------------
- ---------------------------------------------------------------------

[Riff 1b] - [00:24] - [00:32]
- -17-17-17-17-17-17-17-17-16-16-16-16-16-16-16-16-14-14-14-14-14-14-14-14-13-13-13-13-13-13-13-13-
- -------------------------------------------------------------------------------------------------
- -------------------------------------------------------------------------------------------------
- -------------------------------------------------------------------------------------------------
- -------------------------------------------------------------------------------------------------
- -------------------------------------------------------------------------------------------------


[Riff 2, Guitar 1 & 2] - [00:32] - [01:04]
- -------------------------------xx--------------------------------
- -------------------------------xx--------------------------------
- ---------0-0-0-0-0-0-0-0-0-----xx--------0-0-0-0-0-0-0-0--------- slight harmonic on 6th fret
- -4-4-4-4-4-4-4-4-4-4-4-4-4-4-4---4-4-4-4-4-4-4-4-4-4-4-4--------- when playing dead notes
- -4-4-4-4-------------------4-4---4-4-4-4-------------------4---4-
- -4-4-4-4-------------------4-4---4-4-4-4-------------------3---3-
-
- -----------------------------------------------------------------
- -----------------------------------------------------------------
- -----------------------------------------------------------------
- -----------------------------------------------------------------
- -----------------------------------------------------------------
- -----------------------------------------------------------------


- ---------------------9-------9999----------------------------7777-
- ---------------------7-------6666----------------------------6666-
- -------6-------------7-------7777------6---------------------7777-
- -----0-----4---4---------------------0-----4---4------------------
- ---4---------6-----0---00----------4---------6-----00--00-0-------
- -0-------0---------0---000-------0-------0---------000-00-00------
PM                   .   ..                          ..  ....
- ------------------------------------------------------------------
- ---------------------------------12b------------------------------
- -11--------------10-----------------------------------------------
- ------------------------------------------------------------------
- ------------------------------------------------------------------
- ------------------------------------------------------------------


- -------------------------------xx--------------------------------
- -------------------------------xx--------------------------------
- ---------0-0-0-0-0-0-0-0-0-----xx--------0-0-0-0-0-0-0-0--------- slight harmonic on 6th fret
- -4-4-4-4-4-4-4-4-4-4-4-4-4-4-4---4-4-4-4-4-4-4-4-4-4-4-4--------- when playing dead notes
- -4-4-4-4-------------------4-4---4-4-4-4-------------------4---4-
- -4-4-4-4-------------------4-4---4-4-4-4-------------------3---3-
-
- -----------------------------------------------------------------
- -----------------------------------------------------------------
- -----------------------------------------------------------------
- -----------------------------------------------------------------
- -----------------------------------------------------------------
- -----------------------------------------------------------------


- ---------------------9-------9999----------------------------7777-
- ---------------------7-------6666----------------------------6666-
- -------6-------------7-------7777------6---------------------7777-
- -----0-----4---4---------------------0-----4---4------------------
- ---4---------6-----0---00----------4---------6-----00--00-0-------
- -0-------0---------0---000-------0-------0---------000-00-00------
PM                   .   ..                          ..  ....
- -14--------------13-------------/17--------------16---------------
- ------------------------------------------------------------------
- ------------------------------------------------------------------
- ------------------------------------------------------------------
- ------------------------------------------------------------------
- ------------------------------------------------------------------


[Riff 3a] - [01:04] - [01:28]
- -----------------------------------------------------------------
- -----------------------------------------------------------------
- -----------------------------------------------------------------
- -7-7-----------7-------------7-7-7-7---------7-7-7-7-------------
- -0-0-----------0-------------0-0-0-0---------0-0-0-0-------------
- -4-4--------3b-4-------------4-4-4-4---------4-4-4-4-----3-3-----
PM ...           .................................................

- -----------------------------------------------------------------
- -----------------------------------------------------------------
- -----------------------------------------------------------------
- -6-6-----------6-------------6-6-6-6---------6-6-6-6-------------
- -5-5-----------5-------------5-5-5-5---------5-5-5-5-------------
- -3-3--------3b-3-------------3-3-3-3---------3-3-3-3-------------
PM ...           .................................................

- -----------------------------------------------------------------
- -----------------------------------------------------------------
- -----------------------------------------------------------------
- -4-4-------------6-6---------6-6-6-6-----6-6-----3-3---------3-3-
- -5-5-------------5-5---------5-5-5-5-----5-5-----4-4---------4-4-
- -0-0-------------0-0---------0-0-0-0-----0-0-----0-0---------0-0-
PM ...............................................................

[Riff 3b] - [01:20] - [01:28]
- -----------------------------------------------------------------
- -7-----------7-----------7-----------7-----------7-----------7---
- ---6-7---------6-7---------6-7---------6-7---------6-7---------6-
- -----------------------------------------------------------------
- -------4-5---------4-5---------4-5---------4-5---------4-5-------
- -----------4-----------4-----------4-----------4-----------4-----

[Riff 1a] - [01:04] - [01:36]
[Riff 1b] - [01:28] - [01:36]


[Riff 4a, Guitar 1 & 2] - [01:36] - [02:08]
- -----------------------------------------------------------------
- -----------------------------------------------------------------
- -----------------------------------------------------------------
- -7-7-7-7-7-7-7-7-7-7-7-7-7-7-7-7-7-7-7-7-7-7-7-7-6-6-6-6-6-6-6-6-
- -0-0-0-0-0-0-0-0-0-0-0-0-0-0-0-0-0-0-0-0-0-0-0-0-0-0-0-0-0-0-0-0-
- -4-4-4-4-4-4-4-4-4-4-4-4-4-4-4-4-4-4-4-4-4-4-4-4-4-4-4-4-4-4-4-4-
-
- -----------------------------------------------------------------
- -----------------------------------------------------------------
- -----------------------------------------------------------------
- -7-7-7-7-7-7-7-7-7-7-7-7-7-7-7-7-7-7-7-7-7-7-7-7-6-6-6-6-6-6-6-6-
- -0-0-0-0-0-0-0-0-0-0-0-0-0-0-0-0-0-0-0-0-0-0-0-0-0-0-0-0-0-0-0-0-
- -4-4-4-4-4-4-4-4-4-4-4-4-4-4-4-4-4-4-4-4-4-4-4-4-4-4-4-4-4-4-4-4-


- -----------------------------------------------------------------
- -----------------------------------------------------------------
- -7-7-7-7-7-7-7-7-7-7-7-7-7-7-7-7-7-7-7-7-7-7-7-7-7-7-7-7-7-7-7-7-
- -6-6-6-6-6-6-6-6-6-6-6-6-6-6-6-6-6-6-6-6-6-6-6-6-6-6-6-6-6-6-6-6-
- -5-5-5-5-5-5-5-5-5-5-5-5-5-5-5-5-5-5-5-5-5-5-5-5-5-5-5-5-5-5-5-5-
- -3-3-3-3-3-3-3-3-3-3-3-3-3-3-3-3-3-3-3-3-3-3-3-3-3-3-3-3-3-3-3-3-
-
- -----------------------------------------------------------------
- -----------------------------------------------------------------
- -7-7-7-7-7-7-7-7-7-7-7-7-7-7-7-7-7-7-7-7-7-7-7-7-7-7-7-7-7-7-7-7-
- -6-6-6-6-6-6-6-6-6-6-6-6-6-6-6-6-6-6-6-6-6-6-6-6-6-6-6-6-6-6-6-6-
- -5-5-5-5-5-5-5-5-5-5-5-5-5-5-5-5-5-5-5-5-5-5-5-5-5-5-5-5-5-5-5-5-
- -3-3-3-3-3-3-3-3-3-3-3-3-3-3-3-3-3-3-3-3-3-3-3-3-3-3-3-3-3-3-3-3-


- -----------------------------------------------------------------
- -7-7-7-7-7-7-7-7-7-7-7-7-7-7-7-7-7-7-7-7-7-7-7-7-6-6-6-6-6-6-6-6-
- -x-x-x-x-x-x-x-x-x-x-x-x-x-x-x-x-x-x-x-x-x-x-x-x-x-x-x-x-x-x-x-x-
- -4-4-4-4-4-4-4-4-4-4-4-4-4-4-4-4-4-4-4-4-4-4-4-4-3-3-3-3-3-3-3-3-
- -5-5-5-5-5-5-5-5-5-5-5-5-5-5-5-5-5-5-5-5-5-5-5-5-5-5-5-5-5-5-5-5-
- -0-0-0-0-0-0-0-0-0-0-0-0-0-0-0-0-0-0-0-0-0-0-0-0-0-0-0-0-0-0-0-0-
-
- -----------------------------------------------------------------
- -7-7-7-7-7-7-7-7-7-7-7-7-7-7-7-7-7-7-7-7-7-7-7-7-6-6-6-6-6-6-6-6-
- -x-x-x-x-x-x-x-x-x-x-x-x-x-x-x-x-x-x-x-x-x-x-x-x-x-x-x-x-x-x-x-x-
- -4-4-4-4-4-4-4-4-4-4-4-4-4-4-4-4-4-4-4-4-4-4-4-4-3-3-3-3-3-3-3-3-
- -5-5-5-5-5-5-5-5-5-5-5-5-5-5-5-5-5-5-5-5-5-5-5-5-5-5-5-5-5-5-5-5-
- -0-0-0-0-0-0-0-0-0-0-0-0-0-0-0-0-0-0-0-0-0-0-0-0-0-0-0-0-0-0-0-0-


- -5-5-5-5-5-5-5-5-5-5-5-5-5-5-5-5----------------------------------
- -7-7-7-7-7-7-7-7-7-7-7-7-7-7-7-7-7-7-7-7-7-7-7-7-7----------------
- -6-6-6-6-6-6-6-6-6-6-6-6-6-6-6-6-7-7-7-7-7-7-7-7-7----------------
- -4-4-4-4-4-4-4-4-4-4-4-4-4-4-4-4-3-3-3-3-3-3-3-3-3----------------
- ---------------------------------4-4-4-4-4-4-4-4-4----------------
- ------------------------------------------------------------------
-
- -------------------------------------------------------7/9--------
- -7-7-7-7-7-7-7-7-7-7-7-7-7-7-7-7-6-6-6-6-6-6-6-----6/9----10------
- -x-x-x-x-x-x-x-x-x-x-x-x-x-x-x-x-x-x-x-x-x-x-x---6----------13p10-
- -4-4-4-4-4-4-4-4-4-4-4-4-4-4-4-4-3-3-3-3-3-3-3--------------------
- ------------------------------------------------------------------
- ------------------------------------------------------------------


[Riff 4b] - [01:36] - [02:08]
- -17--------------16--------------14--------------13--------------
- -----------------------------------------------------------------
- -----------------------------------------------------------------
- -----------------------------------------------------------------
- -----------------------------------------------------------------
- -----------------------------------------------------------------

- -17--------------16--------------14--------------13--------------
- -----------------------------------------------------------------
- -----------------------------------------------------------------
- -----------------------------------------------------------------
- -----------------------------------------------------------------
- -----------------------------------------------------------------

- -17--------------16--------------14--------------13--------------
- -----------------------------------------------------------------
- -----------------------------------------------------------------
- -----------------------------------------------------------------
- -----------------------------------------------------------------
- -----------------------------------------------------------------

- -17--------------16----------------------------------------------
- ---------------------------------15--------------14--------------
- -----------------------------------------------------------------
- -----------------------------------------------------------------
- -----------------------------------------------------------------
- -----------------------------------------------------------------

[Riff 5a] - [02:08] - [02:40]
- -----------------------------------------------------------------
- -----------------------------------------------------------------
- -----------------------------------------------------------------
- -7-7-----------7-------------7-7-7-7---------7-7-7-7-------------
- -0-0-----------0-------------0-0-0-0---------0-0-0-0-------------
- -4-4--------3b-4-------------4-4-4-4---------4-4-4-4-----3-3-----
PM ...           .................................................

- -----------------------------------------------------------------
- -----------------------------------------------------------------
- -----------------------------------------------------------------
- -6-6-----------6-------------6-6-6-6---------6-6-6-6-------------
- -5-5-----------5-------------5-5-5-5---------5-5-5-5-------------
- -3-3--------3b-3-------------3-3-3-3---------3-3-3-3-------------
PM ...           .................................................

- -----------------------------------------------------------------
- -----------------------------------------------------------------
- -----------------------------------------------------------------
- -4-4-------------6-6---------6-6-6-6-----6-6-----3-3---------3-3-
- -5-5-------------5-5---------5-5-5-5-----5-5-----4-4---------4-4-
- -0-0-------------0-0---------0-0-0-0-----0-0-----0-0---------0-0-
PM ...............................................................

- -----------------------------------------------------------------
- -----------------------------------------------------------------
- -----------------------------------------------------------------
- -3-3---------4-4-4-4-------------6-6-------------4-4-4-4-3-3-3-3-
- -4-4---------5-5-5-5-------------5-5-------------5-5-5-5-4-4-4-4-
- -0-0---------0-0-0-0-------------0-0-------------0-0-0-0-0-0-0-0-
PM ...................................................   .

[Riff 5b] - [02:08] - [02:40] - [x2]
- -----------------------------------------------------------------
- -7-----------7-----------7-----------7-----------7-----------7---
- ---6-7---------6-7---------6-7---------6-7---------6-7---------6-
- -----------------------------------------------------------------
- -------4-5---------4-5---------4-5---------4-5---------4-5-------
- -----------4-----------4-----------4-----------4-----------4-----

- -5-----------5-----------5-----------5-----------5-----------5---
- -----------6-----------6-----------6-----------6-----------6-----
- ---6-7---------6-7---------6-7---------6-7---------6-7---------6-
- -----------------------------------------------------------------
- -------4-5---------4-5---------4-5---------4-5---------4-5-------
- -----------------------------------------------------------------

[Riff 1a] - [02:08] - [02:40]

[Riff 6, Guitar 1 & 2] - [02:40] - [03:12]
- -----------------------------------------------------------------
- -----------------------------------------------------------------
- -----------------------------------------------------------------
- -7-7-7-7-7-7-7-7-7-7-7-7-7-7-7-7-7-7-7-7-7-7-7-7-6-6-6-6-6-6-6-6-
- -0-0-0-0-0-0-0-0-0-0-0-0-0-0-0-0-0-0-0-0-0-0-0-0-0-0-0-0-0-0-0-0-
- -4-4-4-4-4-4-4-4-4-4-4-4-4-4-4-4-4-4-4-4-4-4-4-4-4-4-4-4-4-4-4-4-
-
- -----------------------------------------------------------------
- -----------------------------------------------------------------
- -----------------------------------------------------------------
- -7-7-7-7-7-7-7-7-7-7-7-7-7-7-7-7-7-7-7-7-7-7-7-7-6-6-6-6-6-6-6-6-
- -0-0-0-0-0-0-0-0-0-0-0-0-0-0-0-0-0-0-0-0-0-0-0-0-0-0-0-0-0-0-0-0-
- -4-4-4-4-4-4-4-4-4-4-4-4-4-4-4-4-4-4-4-4-4-4-4-4-4-4-4-4-4-4-4-4-


- -----------------------------------------------------------------
- -----------------------------------------------------------------
- -7-7-7-7-7-7-7-7-7-7-7-7-7-7-7-7-7-7-7-7-7-7-7-7-7-7-7-7-7-7-7-7-
- -6-6-6-6-6-6-6-6-6-6-6-6-6-6-6-6-6-6-6-6-6-6-6-6-6-6-6-6-6-6-6-6-
- -5-5-5-5-5-5-5-5-5-5-5-5-5-5-5-5-5-5-5-5-5-5-5-5-5-5-5-5-5-5-5-5-
- -3-3-3-3-3-3-3-3-3-3-3-3-3-3-3-3-3-3-3-3-3-3-3-3-3-3-3-3-3-3-3-3-
-
- -----------------------------------------------------------------
- -----------------------------------------------------------------
- -7-7-7-7-7-7-7-7-7-7-7-7-7-7-7-7-7-7-7-7-7-7-7-7-7-7-7-7-7-7-7-7-
- -6-6-6-6-6-6-6-6-6-6-6-6-6-6-6-6-6-6-6-6-6-6-6-6-6-6-6-6-6-6-6-6-
- -5-5-5-5-5-5-5-5-5-5-5-5-5-5-5-5-5-5-5-5-5-5-5-5-5-5-5-5-5-5-5-5-
- -3-3-3-3-3-3-3-3-3-3-3-3-3-3-3-3-3-3-3-3-3-3-3-3-3-3-3-3-3-3-3-3-


- -----------------------------------------------------------------
- -7-7-7-7-7-7-7-7-7-7-7-7-7-7-7-7-7-7-7-7-7-7-7-7-6-6-6-6-6-6-6-6-
- -x-x-x-x-x-x-x-x-x-x-x-x-x-x-x-x-x-x-x-x-x-x-x-x-x-x-x-x-x-x-x-x-
- -4-4-4-4-4-4-4-4-4-4-4-4-4-4-4-4-4-4-4-4-4-4-4-4-3-3-3-3-3-3-3-3-
- -5-5-5-5-5-5-5-5-5-5-5-5-5-5-5-5-5-5-5-5-5-5-5-5-5-5-5-5-5-5-5-5-
- -0-0-0-0-0-0-0-0-0-0-0-0-0-0-0-0-0-0-0-0-0-0-0-0-0-0-0-0-0-0-0-0-
-
- -----------------------------------------------------------------
- -7-7-7-7-7-7-7-7-7-7-7-7-7-7-7-7-7-7-7-7-7-7-7-7-6-6-6-6-6-6-6-6-
- -x-x-x-x-x-x-x-x-x-x-x-x-x-x-x-x-x-x-x-x-x-x-x-x-x-x-x-x-x-x-x-x-
- -4-4-4-4-4-4-4-4-4-4-4-4-4-4-4-4-4-4-4-4-4-4-4-4-3-3-3-3-3-3-3-3-
- -5-5-5-5-5-5-5-5-5-5-5-5-5-5-5-5-5-5-5-5-5-5-5-5-5-5-5-5-5-5-5-5-
- -0-0-0-0-0-0-0-0-0-0-0-0-0-0-0-0-0-0-0-0-0-0-0-0-0-0-0-0-0-0-0-0-


- -5-5-5-5-5-5-5-5-5-5-5-5-5-5-5-5---------------------------------
- -7-7-7-7-7-7-7-7-7-7-7-7-7-7-7-7-7-7-7-7-7-7-7-7-7-7-7-7-7-7-7-7-
- -6-6-6-6-6-6-6-6-6-6-6-6-6-6-6-6-7-7-7-7-7-7-7-7-7-7-7-7-7-7-7-7-
- -4-4-4-4-4-4-4-4-4-4-4-4-4-4-4-4-3-3-3-3-3-3-3-3-3-3-3-3-3-3-3-3-
- ---------------------------------4-4-4-4-4-4-4-4-4-4-4-4-4-4-4-4-
- -----------------------------------------------------------------
-
- -----------------------------------------------------------------
- -7-7-7-7-7-7-7-7-7-7-7-7-7-7-7-7-6-6-6-6-6-6-6-6-6-6-6-6-6-6-6-6-
- -x-x-x-x-x-x-x-x-x-x-x-x-x-x-x-x-x-x-x-x-x-x-x-x-x-x-x-x-x-x-x-x-
- -4-4-4-4-4-4-4-4-4-4-4-4-4-4-4-4-3-3-3-3-3-3-3-3-3-3-3-3-3-3-3-3-
- -----------------------------------------------------------------
- -----------------------------------------------------------------


[Riff 7a, Guitar 1 & 2] - [03:12] - [03:46] - [x2]
- -----------------9-----------------------------------------------
- -----------------10----------------------------------------------
- -----------------11----------------------------------------------
- -----------------12----------------------------------------------
- -----------------------------------------------------------------
- -4------/11----0-------------------------------------------------
-
- ----------------------------------------------9-10---------------
- ---------7-/10-9-------br--------------------------7/10-9br------
- -------6---------------------------------------------------------
- -----7--------------------------------------------------------12-
- ---4-------------------------------------------------------------
- -4---------------------------------------------------------------


- -----------------9-----------------------------------------------
- -----------------10----------------------------------------------
- -----------------11----------------------------------------------
- -----------------12----------------------------------------------
- -----------------------------------------------------------------
- -4------/11----0-------------------------------------------------
-
- -----------------------------------------------------------------
- -----------------------------------------------------------------
- --------/11----10--------b---------------------------------------
- -11--------------------------------------------------------------
- -----------------------------------------------------------------
- -----------------------------------------------------------------


[Riff 7b] - [03:12] - [03:46]
- -----------------------------------------------------------------
- -14--------------------------------------------------------------
- -----------------------------------------------------------------
- -----------------------------------------------------------------
- -----------------------------------------------------------------
- -----------------------------------------------------------------

- -----------------------------------------------------------------
- ---------12b-----------------------------------------------------
- -----------------------------------------------------------------
- -----------------------------------------------------------------
- -----------------------------------------------------------------
- -----------------------------------------------------------------

- -----------------------------------------------------------------
- -14----------b---------------------------------------------------
- -----------------------------------------------------------------
- -----------------------------------------------------------------
- -----------------------------------------------------------------
- -----------------------------------------------------------------

- -----------------------------------------------------------------
- -12b-------------------------------------------------------------
- -----------------------------------------------------------------
- -----------------------------------------------------------------
- -----------------------------------------------------------------
- -----------------------------------------------------------------

[Symbols]

PM... Palm Mute notes with (...) under them
AP... Alternate Pick notes with (...) under them
h     Hammer On
p     Pull Off
[ ]   Harmonic
/     Slide Up
\     Slide Down
x     Dead Note
b     Bend
hb    Hold Bend
pb    Pre-Bend
r     Release Bend
(x )  Play Notes x amount of times
~     Let Ring
\\\   Pick Slide Down
///   Pick Slide Up
/ 3 \ Notes are triplets (3 notes in the space of two)
w\    Whammy Bar Down
w/    Whammy Bar Up
wh    Whammy Bar Hold
T     Right Hand Tap
L     Left Hand Tap

:)

            
            
Suggest correction
Creating personal tab
Creating personal tab
You can edit any tab online and save it as your Personal.

You can edit, replace or remove any tab part or add personal notes – all changes will be seen only by you.

Personal tabs can be accessed anytime from any device, even offline.
Learn more »
Give kudos to tab author, rate the tab!
1 2 3 4 5
comments
print report bad tab
guest
You may want to rate the tab now too:
select rating
Wanna post a correction for this tab? Suggest correction