Oops, an error
Loading. Please wait.

Xx City Grave tab

version 1
version 1

Whole song

Interactive

169 views 3 this week
no commentswrite comment
1 2 3 4 5
3 more votes to show rating
add to favorites
×
Save as Personal and add changes to this tab that will be seen only by you. Learn more ›
×
You can save this tab as Personal to edit and correct it or add notes. All changes will be seen only by you. Learn more »
launch autoscroll
font size
0
reset
how to read this tab
guitar tuner
edit
Autoscroll
slow
fast
+/-
esc
set tempo
stop
[XX (City Grave)
[The Night God Slept]
[Silent Planet]

Tuning: Bb F Bb Eb G C
Playthrough: https://www.youtube.com/watch?v=MQ8Ey9KFShc


[Riff 1, Guitar 1 & 2] - [00:00] - [00:14]
- -----------------------------------------------------------------
- -------------------------------------------------8-8-------------
- -7-7-7-7-----8-8-8-8-------------7-7-7-7---------------------8-8-
- -0-0-0-0-----0-0-0-0-------------0-0-0-0-5-5-8-8-----------------
- -6-6-6-6-----6-6-6-6-------------6-6-6-6-------------6-6-9-9-----
- ---------0-0---------0-0-0---------------------------------------
PM         ...         ...                 .......................
- -----------------------------------------------------------------
- -------------------------------------------------8-8-------------
- -7-7-7-7-----8-8-8-8-------------7-7-7-7---------------------8-8-
- -0-0-0-0-----0-0-0-0-------------0-0-0-0-5-5-8-8-----------------
- -6-6-6-6-----6-6-6-6-------------6-6-6-6-------------6-6-9-9-----
- ---------0-0---------0-0-0---------------------------------------
PM         ...         ...                 .......................


- -----------------------------------------------------------------
- -----------------------------------------------------------------
- -7-7-7-7-----8-8-8-8-------------7-7-7-7-------------------------
- -0-0-0-0-----0-0-0-0-------------0-0-0-0-----4h5p4---------------
- -6-6-6-6-----6-6-6-6-------------6-6-6-6-3h6-------6-/3\---------
- ---------0-0---------0-0-0---------------------------0000--------
PM         ...         ...                             ...
- -----------------------------------------------------------------
- -----------------------------------------------------------------
- -7-7-7-7-----8-8-8-8-------------7-7-7-7-------------------------
- -0-0-0-0-----0-0-0-0-------------0-0-0-0-----4h5p4---------------
- -6-6-6-6-----6-6-6-6-------------6-6-6-6-3h6-------6-/3\---------
- ---------0-0---------0-0-0---------------------------0000--------
PM         ...         ...                             ...


- -----------------------------------------------------15-15-------------------
- -----------------------------------------------------------------------16-16-
- -7-7-7-7-----8-8-8-8-------------7-7-7-7-12-12-15-15-------------------------
- -0-0-0-0-----0-0-0-0-------------0-0-0-0-------------------13-13-16-16-------
- -6-6-6-6-----6-6-6-6-------------6-6-6-6-------------------------------------
- ---------0-0---------0-0-0---------------------------------------------------
PM         ...         ...                 ...................................
- -----------------------------------------------------15-15-------------------
- -----------------------------------------------------------------------16-16-
- -7-7-7-7-----8-8-8-8-------------7-7-7-7-12-12-15-15-------------------------
- -0-0-0-0-----0-0-0-0-------------0-0-0-0-------------------13-13-16-16-------
- -6-6-6-6-----6-6-6-6-------------6-6-6-6-------------------------------------
- ---------0-0---------0-0-0---------------------------------------------------
PM         ...         ...                 ...................................


- ------------------------------------------------------------------------
- -15-15-15-15-----16-16-16-16--------------------------------------------
- -12-12-12-12-----x--x--x--x--------------7-7-7-7------------------------
- -13-13-13-13-----12-12-12-12-------------0-0-0-0-----7h8p7--------------
- -----------------------------------------6-6-6-6-6h9-------9-/3\--------
- -------------0-0-------------0-0-0---------------------------0000---0-0-
PM             ...             ...                             ...    ...
- ------------------------------------------------------------------------
- ------------------------------------------------------------------------
- -12-12-12-12-----11-11-11-11-------------7-7-7-7------------------------
- -16-16-16-16-----x--x--x--x--------------0-0-0-0-----4h5p4--------------
- -----------------10-10-10-10-------------6-6-6-6-3h6-------6-/3\--------
- -------------0-0-------------0-0-0---------------------------0000---0-0-
PM             ...             ...                             ...    ...


[Riff 2, Guitar 1 & 2] - [00:14] - [00:30]
- -------------------------------------------------------------------------------------------------
- -------------------------------------------------------------------------------------------------
- -------------------------------------------------------------------------------------------------
- -\\\---------1h4p1---------------------------------------------------------------------------4h7-
- -\\\---------------5p3h5-----------------10------6-------5---------------------0h3h6p3p0-3h6-----
- -\\\-0-------------------0-----------0h8-----0h3-----3-------1-------0---0h1h4-------------------
-
- -------------------------------------------------------------------------------------------------
- -------------------------------------------------------------------------------------------------
- -------------------------------------------------------------------------------------------------
- -\\\---------1h4p1---------------------------------------------------------------------------4h7-
- -\\\---------------5p3h5-----------------10------6-------5---------------------0h3h6p3p0-3h6-----
- -\\\-0-------------------0-----------0h8-----0h3-----3-------1-------0---0h1h4-------------------


- -----------------------------------------------------------------------------------------
- -----------------------------------------------------------------------------------------
- -----------------------------------------------------------------------------------------
- -------------1h4p1-------------------------------------------------------7-7-------------
- -5-5---------------5p3h5-----------------10------6-------5-------------------3-3-6-6-----
- -----0-------------------0-----------0h8-----0h3-----3-------1-------0---------------4-4-
PM                                                                         ...............
- -----------------------------------------------------------------------------------------
- -----------------------------------------------------------------------------------------
- -----------------------------------------------------------------------------------------
- -------------1h4p1-------------------------------------------------------7-7-------------
- -5-5---------------5p3h5-----------------10------6-------5-------------------3-3-6-6-----
- -----0-------------------0-----------0h8-----0h3-----3-------1-------0---------------4-4-
PM                                                                         ...............


- -----------------------------------------------------------------------------------------------------------
- -------------------------------------------------------------------------------------------------------4-4-
- -------------------------------------------------------------------------------------------7-7-----7-7-----
- -------------1h4p1-------------------------------------------------------10-10-----------------------------
- -5-5---------------5p3h5-----------------10------6-------5---------------------6-6-9-9---------6-6---------
- -----0-------------------0-----------0h8-----0h3-----3-------1-------0-----------------7-7-----------------
PM                                                                         .................     ...
- -----------------------------------------------------------------------------------------------------------
- -------------------------------------------------------------------------------------------------------4-4-
- -------------------------------------------------------------------------------------------7-7-----7-7-----
- -------------1h4p1-------------------------------------------------------7--7------------------------------
- -5-5---------------5p3h5-----------------10------6-------5---------------------3-3-6-6---------6-6---------
- -----0-------------------0-----------0h8-----0h3-----3-------1-------0-----------------4-4-----------------
PM                                                                         .................     ...


[Riff 3a, Guitar 1 & 2] - [00:32] - [00:46]
- -----------------------------------------------------------------
- -----------------------------------------------------------------
- -8-8-8-8-------------8-8-8-8-----8-8-8-8-------------------------
- -0-0-0-0-------------0-0-0-0-----0-0-0-0-------------------------
- -6-6-6-6-------------6-6-6-6-----6-6-6-6-------------------------
- ---------0-------------------0-----------0-----------------------
-
- -----------------------------------------------------------------
- -----------------------------------------------------------------
- -7-7-7-7-------------7-7-7-7-----7-7-7-7-------------------------
- -0-0-0-0-------------0-0-0-0-----0-0-0-0-------------------------
- -6-6-6-6-------------6-6-6-6-----6-6-6-6-------------------------
- ---------0-------------------0-----------0-----------------------


- -----------------------------------------------------------------------------
- -----------------------------------------------------------------13-13-16-16-
- -8-8-8-8-----8-8-8-8---------------------------------------11-11-------------
- -0-0-0-0-----0-0-0-0---------------------------10-10-13-13-------------------
- -6-6-6-6-----6-6-6-6-----------------9-9-12-12-------------------------------
- ---------0-----------0---10-10-13-13-----------------------------------------
PM                         .....................
- -----------------------------------------------------------------------------
- -----------------------------------------------------------------13-13-16-16-
- -7-7-7-7-----7-7-7-7---------------------------------------11-11-------------
- -0-0-0-0-----0-0-0-0---------------------------10-10-13-13-------------------
- -6-6-6-6-----6-6-6-6-----------------9-9-12-12-------------------------------
- ---------0-----------0---10-10-13-13-----------------------------------------
PM                         .....................


- -----------------------------------------------------------------------------
- -15-15-15-15-------------15-15-15-15-----15-15-15-15-------------------------
- -12-12-12-12-------------12-12-12-12-----12-12-12-12-------------------------
- -13-13-13-13-------------13-13-13-13-----13-13-13-13-------------------------
- -----------------------------------------------------------------------------
- -------------0-----------------------0---------------0-----------------------
-
- -----------------------------------------------------------------------------
- -15-15-15-15-------------15-15-15-15-----15-15-15-15-------------------------
- -12-12-12-12-------------12-12-12-12-----12-12-12-12-------------------------
- -13-13-13-13-------------13-13-13-13-----13-13-13-13-------------------------
- -----------------------------------------------------------------------------
- -------------0-----------------------0---------------0-----------------------


- -------------------------------------------------------------------------------------
- -15-15-15-15-------------15-15-15-15-----15-15-15-15---------13-13-15-15-13-13-------
- -14-14-14-14-------------14-14-14-14-----14-14-14-14---------------------------------
- -13-13-13-13-------------13-13-13-13-----13-13-13-13---------------------------13-13-
- -------------------------------------------------------------------------------------
- -------------0-----------------------0---------------0-------------------------------
-
- -------------------------------------------------------------------------------------
- -15-15-15-15-------------15-15-15-15-----15-15-15-15---------13-13-15-15-13-13-------
- -14-14-14-14-------------14-14-14-14-----14-14-14-14---------------------------------
- -13-13-13-13-------------13-13-13-13-----13-13-13-13---------------------------13-13-
- -------------------------------------------------------------------------------------
- -------------0-----------------------0---------------0-------------------------------


[Riff 3b] - [00:30] - [00:46]
- -----------------
- -----------------
- -----------------
- -13--------------
- -----------------
- -----------------

- -----------------------------------------------------------------
- -----------------------------------------------------------------
- -----------------------------------------------------------------
- -----------------12----------------------------------------------
- -----------------------------------------------------------------
- -----------------------------------------------------------------

- -----------------------------------------------------------------
- -----------------15----------------------------------------------
- -12------------------------------14------------------------------
- -----------------------------------------------------------------
- -----------------------------------------------------------------
- -----------------------------------------------------------------


[Riff 4, Guitar 1 & 2] - [00:46] - [01:15]
- -----------------------------------------------------------------
- -----------------------------------------------------------------
- -----------------------------------------------------------------
- -----------------------------------------------------------------
- -----------------------------------------------------------------
- -----------------------------------------------------------------
-
- -----------------------------------------------------------------
- -----------------16------------------------------13--------------
- -----------------------------------------------------------------
- -13------------------------------12------------------------------
- -----------------------------------------------------------------
- -----------------------------------------------------------------


- ---------------------------------------------------------------------
- ---------------------------------------------------------------------
- ---------------------------------------------------------------------
- ---------------------------------------------------------------------
- ---------------------------------------------------------------------
- ---------------------------------------------------------------------
-
- ---------------------------------------------------------------------
- -----------------15--------------------------------------------------
- -12------------------------------14----------------------------------
- ---------------------------------------------------------------------
- ---------------------------------------------------------------------
- ---------------------------------------------------------------------


- -------------------------------------------------14--------------
- -----------------------------------------------------------------
- ---------------------------------12------------------------------
- -10--------------------------------------------------------------
- -----------------------------------------------------------------
- -----------------------------------------------------------------
-
- -----------------------------------------------------------------
- -----------------16------------------------------13--------------
- -----------------------------------------------------------------
- -13------------------------------12------------------------------
- -----------------------------------------------------------------
- -----------------------------------------------------------------


- ---------------------------------14------------------------------
- -----------------------------------------------------------------
- -----------------------------------------------------------------
- -10--------------------------------------------------------------
- -----------------------------------------------------------------
- -----------------------------------------------------------------
-
- -----------------------------------------------------------------
- -----------------15----------------------------------------------
- -12------------------------------14------------------------------
- -----------------------------------------------------------------
- -----------------------------------------------------------------
- -----------------------------------------------------------------


[Riff 5a, Guitar 1 & 2] - [01:15] - [01:43]
- -----------------------------------------------------------------
- -------------------------------------------4-------------7-------
- -----------------------------5-----------7---7-------------5---5-
- ---------1-----------------4-----------0---------------5-----4---
- ---------------5--------/5-----------6---------------9-----------
- -1---1-----1-----1---1-0-------0-5-------------4--/7-------------
-
- -----------------------------------------------------------------
- -------------------------------------------4-------------7-------
- -----------------------------5-----------7---7-------------5---5-
- ---------1-----------------4-----------0---------------5-----4---
- ---------------5--------/5-----------6---------------9-----------
- -1---1-----1-----1---1-0-------0-5-------------4--/7-------------


- -----------------------------------------------------------------
- -------------------------------------------4-------------7-------
- -----------------------------5-----------7---7-------------5---5-
- ---------1-----------------4-----------0---------------5-----4---
- ---------------5--------/5-----------6---------------9-----------
- -1b--1b----1-----1---1-0-------0-5-------------4--/7-------------
-
- ---------------------------------------------------------5-------
- -------------------------------------------4---------------4---4-
- -----------------------------5-----------7---7---------------5---
- ---------1-----------------4-----------0---------------5---------
- ---------------5--------/5-----------6---------------9-----------
- -1b--1b----1-----1---1-0-------0-5-------------4--/7-------------


- -----------------------------------------------------------------
- -------------------------------------------4-------------7-------
- -----------------------------5-----------7---7-------------5---5-
- ---------1-----------------4-----------0---------------5-----4---
- -6---6---------5--------/5-----------6---------------9-----------
- -0---0-----1-----1---1-0-------0-5-------------4--/7-------------
PM .....
- -----------------------------------------------------------------
- -------------------------------------------4-------------7-------
- -----------------------------5-----------7---7-------------5---5-
- ---------1-----------------4-----------0---------------5-----4---
- -6---6---------5--------/5-----------6---------------9-----------
- -0---0-----1-----1---1-0-------0-5-------------4--/7-------------
PM .....


- ----------------------------------------------------------------------------------------------
- -------------------------------------------4--------------------------13-13-15-15-13-13-------
- -----------------------------5-----------7---7------------12-12-------------------------------
- ---------1-----------------4-----------0------------13-13-------------------------------13-13-
- ---------------5--------/5-----------6--------------------------------------------------------
- -1b--1b----1-----1---1-0-------0-5-------------7/10-------------13-13-------------------------
PM                                                                .....
- ----------------------------------------------------------------------------------------------
- -------------------------------------------4--------------------------13-13-15-15-13-13-------
- -----------------------------5-----------7---7------------12-12-------------------------------
- ---------1-----------------4-----------0------------13-13-------------------------------13-13-
- ---------------5--------/5-----------6--------------------------------------------------------
- -1b--1b----1-----1---1-0-------0-5-------------7/10-------------13-13-------------------------
PM                                                                .....


[Riff 5b] - [01:15] - [01:43]
- -----------------------------------------------------------------
- -------------------------16------15--------------13--------------
- -----------------------------------------------------------------
- -13--------------------------------------------------------------
- -----------------------------------------------------------------
- -----------------------------------------------------------------

- -----------------------------------------------------------------
- -----------------------------------------------------------------
- -----------------15----------------------------------------------
- -12------------------------------15--------------14--------------
- -----------------------------------------------------------------
- -----------------------------------------------------------------

- -15------17----------------------18----------------------23------
- -----------------------------------------------------------------
- -----------------------------------------------------------------
- -----------------------------------------------------------------
- -----------------------------------------------------------------
- -----------------------------------------------------------------

- -22----------------------------------------------22--------------
- -20--------------20------22------23------------------------------
- -----------------------------------------------------------------
- -----------------------------------------------------------------
- -----------------------------------------------------------------
- -----------------------------------------------------------------


[Riff 6a, Guitar 1 & 2] - [01:43] - [02:12]
- -------------------------------------------------------------------------------------------------
- -------------------------------------------------------------------------------------------------
- -14-14-------------14-14-------------14-14-------14-14-------------14-14-------------14-14-------
- -------------------------------------------------------------------------------------------------
- -------13-13-------------13-13-------------13-13-------13-13-------------13-13-------------13-13-
- -------------12-12-------------12-12-------------------------12-12-------------12-12-------------
-
- -------------------------------------------------------------------------------------------------
- -------------------------------------------------------------------------------------------------
- -14-14-------------14-14-------------14-14-------14-14-------------14-14-------------14-14-------
- -------------------------------------------------------------------------------------------------
- -------13-13-------------13-13-------------13-13-------13-13-------------13-13-------------13-13-
- -------------12-12-------------12-12-------------------------12-12-------------12-12-------------


- -------------------------------------------------------------------------------------------------
- -------------------------------------------------------------------------------------------------
- -15-15-------------15-15-------------15-15-------15-15-------------15-15-------------15-15-------
- -------------------------------------------------------------------------------------------------
- -------12-12-------------12-12-------------12-12-------12-12-------------12-12-------------12-12-
- -------------13-13-------------13-13-------------------------13-13-------------13-13-------------
-
- -------------------------------------------------------------------------------------------------
- -------------------------------------------------------------------------------------------------
- -15-15-------------15-15-------------15-15-------15-15-------------15-15-------------15-15-------
- -------------------------------------------------------------------------------------------------
- -------12-12-------------12-12-------------12-12-------12-12-------------12-12-------------12-12-
- -------------13-13-------------13-13-------------------------13-13-------------13-13-------------


- -------------------------------------------------------------------------------------------------
- -15-15-------------15-15-------------15-15-------15-15-------------15-15-------------15-15-------
- -------------------------------------------------------------------------------------------------
- -------13-13-------------13-13-------------13-13-------13-13-------------13-13-------------13-13-
- -------------15-15-------------15-15-------------------------15-15-------------15-15-------------
- -------------------------------------------------------------------------------------------------
-
- -------------------------------------------------------------------------------------------------
- -15-15-------------15-15-------------15-15-------15-15-------------15-15-------------15-15-------
- -------------------------------------------------------------------------------------------------
- -------13-13-------------13-13-------------13-13-------13-13-------------13-13-------------13-13-
- -------------15-15-------------15-15-------------------------15-15-------------15-15-------------
- -------------------------------------------------------------------------------------------------


- -------------------------------------------------------------------------------------------------
- -15-15-13-13-------15-15-13-13-------15-15-13-13-16-16-15-15-------16-16-15-15-------16-16-15-15-
- -------------------------------------------------------------11-11-------------11-11-------------
- -------------13-13-------------13-13-------------------------------------------------------------
- -------------------------------------------------------------------------------------------------
- -------------------------------------------------------------------------------------------------
-
- -------------------------------------------------------------------------------------------------
- -15-15-13-13-------15-15-13-13-------15-15-13-13-16-16-15-15-------16-16-15-15-------16-16-15-15-
- -------------------------------------------------------------11-11-------------11-11-------------
- -------------13-13-------------13-13-------------------------------------------------------------
- -------------------------------------------------------------------------------------------------
- -------------------------------------------------------------------------------------------------


- -------------------------------------------------------------------------------------------------
- -------------------------------------------------------------------------------------------------
- -14-14-------------14-14-------------14-14-------14-14-------------14-14-------------14-14-------
- -------------------------------------------------------------------------------------------------
- -------13-13-------------13-13-------------13-13-------13-13-------------13-13-------------13-13-
- -------------12-12-------------12-12-------------------------12-12-------------12-12-------------
-
- -------------------------------------------------------------------------------------------------
- -15-15-------------15-15-------------15-15-------15-15-------------15-15-------------15-15-------
- -------12-12-------------12-12-------------12-12-------12-12-------------12-12-------------12-12-
- -------------12-12-------------12-12-------------------------12-12-------------12-12-------------
- -------------------------------------------------------------------------------------------------
- -------------------------------------------------------------------------------------------------


- -------------------------------------------------------------------------------------------------
- -------------------------------------------------------------------------------------------------
- -15-15-------------15-15-------------15-15-------15-15-------------15-15-------------15-15-------
- -------------------------------------------------------------------------------------------------
- -------12-12-------------12-12-------------12-12-------12-12-------------12-12-------------12-12-
- -------------13-13-------------13-13-------------------------13-13-------------13-13-------------
-
- -------------------------------------------------------------------------------------------------
- -15-15-------------15-15-------------15-15-------15-15-------------15-15-------------15-15-------
- -------11-11-------------11-11-------------11-11-------11-11-------------11-11-------------11-11-
- -------------13-13-------------13-13-------------------------13-13-------------13-13-------------
- -------------------------------------------------------------------------------------------------
- -------------------------------------------------------------------------------------------------


- -------------------------------------------------------------------------------------------------
- -15-15-------------15-15-------------15-15-------15-15-------------15-15-------------15-15-------
- -------------------------------------------------------------------------------------------------
- -------13-13-------------13-13-------------13-13-------13-13-------------13-13-------------13-13-
- -------------15-15-------------15-15-------------------------15-15-------------15-15-------------
- -------------------------------------------------------------------------------------------------
-
- -14-14-------------14-14-------------14-14-------14-14-------------14-14-------------14-14-------
- -------------------------------------------------------------------------------------------------
- -------12-12-11-11-------12-12-11-11-------12-12-------12-12-11-11-------12-12-11-11-------12-12-
- -------------------------------------------------------------------------------------------------
- -------------------------------------------------------------------------------------------------
- -------------------------------------------------------------------------------------------------


- -------------------------------------------------------------------------------------------------
- -15----------------------------------------------------------------------------------------------
- -14----------------------------------------------------------------------------------------------
- -13----------------------------------------------------------------------------------------------
- -------------------------------------------------------------------------------------------------
- -------------------------------------------------------------------------------------------------
-
- -------------------------------------------------------------------------------------------------
- -15----------------------------------------------------------------------------------------------
- -14----------------------------------------------------------------------------------------------
- -13----------------------------------------------------------------------------------------------
- -------------------------------------------------------------------------------------------------
- -------------------------------------------------------------------------------------------------


[Riff 6b] - [01:57] - [02:12]
- -----------------------------------------------------------------
- -----------------------------------------------------------------
- -----------------------------------------------------------------
- -----------------------------------------------------------------
- -----------------------------------------------------------------
- -0-----------0-------------------0-0---0-----0-------0-0---------

- -----------------------------------------------------------------
- -----------------------------------------------------------------
- -----------------------------------------------------------------
- -----------------------------------------------------------------
- -----------------------------------------------------------------
- -1-----------1-------------------1-1---1-----1-------1-1-1-1-1-1-

- -----------------------------------------------------------------
- -----------------------------------------------------------------
- -----------------------------------------------------------------
- -----------------------------------------------------------------
- -3-----------3-------------------3-3---3-----3-------3-3-3---3---
- -----------------------------------------------------------------

- -----------------------------------------------------------------
- -----------------------------------------------------------------
- -----------------------------------------------------------------
- -----------------------------------------------------------------
- -6---------------------------------------------------------------
- -0---------------------------------------------------------------


[Riff 7a, Guitar 1 & 2] - [02:12] - [02:40]
- -----------------------------------------------------------------
- -----------------------------------------------------------------
- -8-8-8-8-------------8-8-8-8-----8-8-8-8-------------------------
- -0-0-0-0-------------0-0-0-0-----0-0-0-0-------------------------
- -6-6-6-6-------------6-6-6-6-----6-6-6-6-------------------------
- ---------0-------------------0-----------0-----------------------
-
- -----------------------------------------------------------------
- -----------------------------------------------------------------
- -7-7-7-7-------------7-7-7-7-----7-7-7-7-------------------------
- -0-0-0-0-------------0-0-0-0-----0-0-0-0-------------------------
- -6-6-6-6-------------6-6-6-6-----6-6-6-6-------------------------
- ---------0-------------------0-----------0-----------------------


- -----------------------------------------------------------------------------
- -----------------------------------------------------------------13-13-16-16-
- -8-8-8-8-----8-8-8-8---------------------------------------11-11-------------
- -0-0-0-0-----0-0-0-0---------------------------10-10-13-13-------------------
- -6-6-6-6-----6-6-6-6-----------------9-9-12-12-------------------------------
- ---------0-----------0---10-10-13-13-----------------------------------------
PM                         .....................
- -----------------------------------------------------------------------------
- -----------------------------------------------------------------13-13-16-16-
- -7-7-7-7-----7-7-7-7---------------------------------------11-11-------------
- -0-0-0-0-----0-0-0-0---------------------------10-10-13-13-------------------
- -6-6-6-6-----6-6-6-6-----------------9-9-12-12-------------------------------
- ---------0-----------0---10-10-13-13-----------------------------------------
PM                         .....................


- -----------------------------------------------------------------------------
- -15-15-15-15-------------15-15-15-15-----15-15-15-15-------------------------
- -12-12-12-12-------------12-12-12-12-----12-12-12-12-------------------------
- -13-13-13-13-------------13-13-13-13-----13-13-13-13-------------------------
- -----------------------------------------------------------------------------
- -------------0-----------------------0---------------0-----------------------
-
- -----------------------------------------------------------------------------
- -15-15-15-15-------------15-15-15-15-----15-15-15-15-------------------------
- -12-12-12-12-------------12-12-12-12-----12-12-12-12-------------------------
- -13-13-13-13-------------13-13-13-13-----13-13-13-13-------------------------
- -----------------------------------------------------------------------------
- -------------0-----------------------0---------------0-----------------------


- -----------------------------------------------------------------------------
- -15-15-15-15-------------15-15-15-15-----15-15-15-15-------------------------
- -14-14-14-14-------------14-14-14-14-----14-14-14-14-------------------------
- -13-13-13-13-------------13-13-13-13-----13-13-13-13-------------------------
- -----------------------------------------------------------------------------
- -------------0-----------------------0---------------0-----------------------
-
- -----------------------------------------------------------------------------
- -15-15-15-15-------------15-15-15-15-----15-15-15-15-------------------------
- -14-14-14-14-------------14-14-14-14-----14-14-14-14-------------------------
- -13-13-13-13-------------13-13-13-13-----13-13-13-13-------------------------
- -----------------------------------------------------------------------------
- -------------0-----------------------0---------------0-----------------------


- -----------------------------------------------------------------
- -----------------------------------------------------------------
- -8-8-8-8-------------8-8-8-8-----8-8-8-8-------------------------
- -0-0-0-0-------------0-0-0-0-----0-0-0-0-------------------------
- -6-6-6-6-------------6-6-6-6-----6-6-6-6-------------------------
- ---------0-------------------0-----------0-----------------------
-
- -----------------------------------------------------------------
- -----------------------------------------------------------------
- -7-7-7-7-------------7-7-7-7-----7-7-7-7-------------------------
- -0-0-0-0-------------0-0-0-0-----0-0-0-0-------------------------
- -6-6-6-6-------------6-6-6-6-----6-6-6-6-------------------------
- ---------0-------------------0-----------0-----------------------


- -----------------------------------------------------------------------------
- -----------------------------------------------------------------13-13-16-16-
- -8-8-8-8-----8-8-8-8---------------------------------------11-11-------------
- -0-0-0-0-----0-0-0-0---------------------------10-10-13-13-------------------
- -6-6-6-6-----6-6-6-6-----------------9-9-12-12-------------------------------
- ---------0-----------0---10-10-13-13-----------------------------------------
PM                         .....................
- -----------------------------------------------------------------------------
- -----------------------------------------------------------------13-13-16-16-
- -7-7-7-7-----7-7-7-7---------------------------------------11-11-------------
- -0-0-0-0-----0-0-0-0---------------------------10-10-13-13-------------------
- -6-6-6-6-----6-6-6-6-----------------9-9-12-12-------------------------------
- ---------0-----------0---10-10-13-13-----------------------------------------
PM                         .....................


- -----------------------------------------------------------------------------
- -15-15-15-15-------------15-15-15-15-----15-15-15-15-------------------------
- -12-12-12-12-------------12-12-12-12-----12-12-12-12-------------------------
- -13-13-13-13-------------13-13-13-13-----13-13-13-13-------------------------
- -----------------------------------------------------------------------------
- -------------0-----------------------0---------------0w\---------------------
-
- -----------------------------------------------------------------------------
- -15-15-15-15-------------15-15-15-15-----15-15-15-15-------------------------
- -12-12-12-12-------------12-12-12-12-----12-12-12-12-------------------------
- -13-13-13-13-------------13-13-13-13-----13-13-13-13-------------------------
- -----------------------------------------------------------------------------
- -------------0-----------------------0---------------0w\---------------------


- -------------------------------------------------------------------------
- -15-15-15-15-------------15-15-15-15-------------------------------------
- -14-14-14-14-------------14-14-14-14-------------------------------------
- -13-13-13-13-------------13-13-13-13-------------------------------------
- -------------------------------------------------------------------------
- -------------0-----------------------0---8-8-8-8---1-1-1-1---4-4-4-4-4-4-
PM                                         ......    ......    ...........
- -------------------------------------------------------------------------
- -15-15-15-15-------------15-15-15-15-------------------------------------
- -14-14-14-14-------------14-14-14-14-------------------------------------
- -13-13-13-13-------------13-13-13-13-------------------------------------
- -------------------------------------------------------------------------
- -------------0-----------------------0---8-8-8-8---1-1-1-1---4-4-4-4-4-4-
PM                                         ......    ......    ...........


[Riff 7b] - [02:25] - [02:40]
- -17------
- ---------
- ---------
- ---------
- ---------
- ---------

- -----------------------------------------------------------------
- -----------------16------------------------------13--------------
- -----------------------------------------------------------------
- -13------------------------------12------------------------------
- -----------------------------------------------------------------
- -----------------------------------------------------------------

- -----------------------------------------------------------------
- -----------------15----------------------------------------------
- -12------------------------------14------------------------------
- -----------------------------------------------------------------
- -----------------------------------------------------------------
- -----------------------------------------------------------------

[Symbols]

PM... Palm Mute notes with (...) under them
AP... Alternate Pick notes with (...) under them
h     Hammer On
p     Pull Off
[ ]   Harmonic
/     Slide Up
\     Slide Down
x     Dead Note
b     Bend
hb    Hold Bend
pb    Pre-Bend
r     Release Bend
(x )  Play Notes x amount of times
~     Let Ring
\\\   Pick Slide Down
///   Pick Slide Up
/ 3 \ Notes are triplets (3 notes in the space of two)
w\    Whammy Bar Down
w/    Whammy Bar Up
wh    Whammy Bar Hold
T     Right Hand Tap
L     Left Hand Tap

:)
Suggest correction
Creating personal tab
Creating personal tab
You can edit any tab online and save it as your Personal.

You can edit, replace or remove any tab part or add personal notes – all changes will be seen only by you.

Personal tabs can be accessed anytime from any device, even offline.
Learn more »
Give kudos to tab author, rate the tab!
1 2 3 4 5
comments
print report bad tab
guest
You may want to rate the tab now too:
select rating
Wanna post a correction for this tab? Suggest correction